ISO-10303-21;
HEADER;
/* Generated by software containing ST-Developer
 * from STEP Tools, Inc. (www.steptools.com) 
 */

FILE_DESCRIPTION(
/* description */ (''),
/* implementation_level */ '2;1');

FILE_NAME(
/* name */ 'S:\\Marketing\\CAD Models\\FE_FI\\FE\\step\\ME101.stp',
/* time_stamp */ '2015-03-24T13:41:52-05:00',
/* author */ ('scottg'),
/* organization */ ('FasTest,Inc.'),
/* preprocessor_version */ 'ST-DEVELOPER v15.2',
/* originating_system */ 'Autodesk Inventor 2014',
/* authorisation */ '');

FILE_SCHEMA (('AUTOMOTIVE_DESIGN { 1 0 10303 214 3 1 1 }'));
ENDSEC;

DATA;
#10=SHAPE_REPRESENTATION_RELATIONSHIP('SRR','None',#652,#11);
#11=ADVANCED_BREP_SHAPE_REPRESENTATION($,(#355),#640);
#12=STYLED_ITEM($,(#660),#355);
#13=TOROIDAL_SURFACE($,#388,0.76,0.12);
#14=PLANE($,#366);
#15=PLANE($,#375);
#16=PLANE($,#391);
#17=PLANE($,#395);
#18=PLANE($,#403);
#19=PLANE($,#408);
#20=PLANE($,#414);
#21=PLANE($,#418);
#22=CYLINDRICAL_SURFACE($,#362,0.1565);
#23=CYLINDRICAL_SURFACE($,#370,0.211);
#24=CYLINDRICAL_SURFACE($,#381,0.1055);
#25=CYLINDRICAL_SURFACE($,#387,0.1055);
#26=CYLINDRICAL_SURFACE($,#393,0.64);
#27=CYLINDRICAL_SURFACE($,#399,1.11);
#28=CYLINDRICAL_SURFACE($,#405,1.);
#29=CYLINDRICAL_SURFACE($,#412,0.2575);
#30=CYLINDRICAL_SURFACE($,#416,0.4);
#31=FACE_BOUND($,#95,.T.);
#32=FACE_BOUND($,#97,.T.);
#33=FACE_BOUND($,#99,.T.);
#34=FACE_BOUND($,#100,.T.);
#35=FACE_BOUND($,#101,.T.);
#36=FACE_BOUND($,#103,.T.);
#37=FACE_BOUND($,#105,.T.);
#38=FACE_BOUND($,#107,.T.);
#39=FACE_BOUND($,#108,.T.);
#40=FACE_BOUND($,#109,.T.);
#41=FACE_BOUND($,#112,.T.);
#42=FACE_BOUND($,#114,.T.);
#43=FACE_BOUND($,#117,.T.);
#44=FACE_BOUND($,#119,.T.);
#45=FACE_BOUND($,#121,.T.);
#46=FACE_BOUND($,#123,.T.);
#47=FACE_BOUND($,#125,.T.);
#48=FACE_BOUND($,#126,.T.);
#49=FACE_BOUND($,#127,.T.);
#50=FACE_BOUND($,#128,.T.);
#51=FACE_BOUND($,#129,.T.);
#52=FACE_BOUND($,#130,.T.);
#53=FACE_BOUND($,#132,.T.);
#54=FACE_BOUND($,#134,.T.);
#55=FACE_BOUND($,#136,.T.);
#56=FACE_BOUND($,#137,.T.);
#57=FACE_BOUND($,#138,.T.);
#58=FACE_BOUND($,#140,.T.);
#59=FACE_BOUND($,#142,.T.);
#60=FACE_BOUND($,#143,.T.);
#61=FACE_BOUND($,#144,.T.);
#62=FACE_BOUND($,#146,.T.);
#63=FACE_BOUND($,#148,.T.);
#64=FACE_BOUND($,#150,.T.);
#65=FACE_BOUND($,#152,.T.);
#66=FACE_BOUND($,#153,.T.);
#67=FACE_BOUND($,#154,.T.);
#68=FACE_OUTER_BOUND($,#93,.T.);
#69=FACE_OUTER_BOUND($,#94,.T.);
#70=FACE_OUTER_BOUND($,#96,.T.);
#71=FACE_OUTER_BOUND($,#98,.T.);
#72=FACE_OUTER_BOUND($,#102,.T.);
#73=FACE_OUTER_BOUND($,#104,.T.);
#74=FACE_OUTER_BOUND($,#106,.T.);
#75=FACE_OUTER_BOUND($,#110,.T.);
#76=FACE_OUTER_BOUND($,#111,.T.);
#77=FACE_OUTER_BOUND($,#113,.T.);
#78=FACE_OUTER_BOUND($,#115,.T.);
#79=FACE_OUTER_BOUND($,#116,.T.);
#80=FACE_OUTER_BOUND($,#118,.T.);
#81=FACE_OUTER_BOUND($,#120,.T.);
#82=FACE_OUTER_BOUND($,#122,.T.);
#83=FACE_OUTER_BOUND($,#124,.T.);
#84=FACE_OUTER_BOUND($,#131,.T.);
#85=FACE_OUTER_BOUND($,#133,.T.);
#86=FACE_OUTER_BOUND($,#135,.T.);
#87=FACE_OUTER_BOUND($,#139,.T.);
#88=FACE_OUTER_BOUND($,#141,.T.);
#89=FACE_OUTER_BOUND($,#145,.T.);
#90=FACE_OUTER_BOUND($,#147,.T.);
#91=FACE_OUTER_BOUND($,#149,.T.);
#92=FACE_OUTER_BOUND($,#151,.T.);
#93=EDGE_LOOP($,(#248));
#94=EDGE_LOOP($,(#249));
#95=EDGE_LOOP($,(#250));
#96=EDGE_LOOP($,(#251));
#97=EDGE_LOOP($,(#252));
#98=EDGE_LOOP($,(#253));
#99=EDGE_LOOP($,(#254));
#100=EDGE_LOOP($,(#255));
#101=EDGE_LOOP($,(#256));
#102=EDGE_LOOP($,(#257));
#103=EDGE_LOOP($,(#258));
#104=EDGE_LOOP($,(#259));
#105=EDGE_LOOP($,(#260));
#106=EDGE_LOOP($,(#261));
#107=EDGE_LOOP($,(#262));
#108=EDGE_LOOP($,(#263));
#109=EDGE_LOOP($,(#264));
#110=EDGE_LOOP($,(#265));
#111=EDGE_LOOP($,(#266));
#112=EDGE_LOOP($,(#267));
#113=EDGE_LOOP($,(#268));
#114=EDGE_LOOP($,(#269));
#115=EDGE_LOOP($,(#270));
#116=EDGE_LOOP($,(#271));
#117=EDGE_LOOP($,(#272));
#118=EDGE_LOOP($,(#273));
#119=EDGE_LOOP($,(#274));
#120=EDGE_LOOP($,(#275));
#121=EDGE_LOOP($,(#276));
#122=EDGE_LOOP($,(#277));
#123=EDGE_LOOP($,(#278));
#124=EDGE_LOOP($,(#279));
#125=EDGE_LOOP($,(#280));
#126=EDGE_LOOP($,(#281));
#127=EDGE_LOOP($,(#282));
#128=EDGE_LOOP($,(#283));
#129=EDGE_LOOP($,(#284));
#130=EDGE_LOOP($,(#285));
#131=EDGE_LOOP($,(#286));
#132=EDGE_LOOP($,(#287));
#133=EDGE_LOOP($,(#288));
#134=EDGE_LOOP($,(#289));
#135=EDGE_LOOP($,(#290));
#136=EDGE_LOOP($,(#291));
#137=EDGE_LOOP($,(#292));
#138=EDGE_LOOP($,(#293));
#139=EDGE_LOOP($,(#294));
#140=EDGE_LOOP($,(#295));
#141=EDGE_LOOP($,(#296));
#142=EDGE_LOOP($,(#297));
#143=EDGE_LOOP($,(#298));
#144=EDGE_LOOP($,(#299));
#145=EDGE_LOOP($,(#300));
#146=EDGE_LOOP($,(#301));
#147=EDGE_LOOP($,(#302));
#148=EDGE_LOOP($,(#303));
#149=EDGE_LOOP($,(#304));
#150=EDGE_LOOP($,(#305));
#151=EDGE_LOOP($,(#306));
#152=EDGE_LOOP($,(#307));
#153=EDGE_LOOP($,(#308));
#154=EDGE_LOOP($,(#309));
#155=CIRCLE($,#358,0.1565);
#156=CIRCLE($,#360,0.215);
#157=CIRCLE($,#361,0.170645117548681);
#158=CIRCLE($,#363,0.1565);
#159=CIRCLE($,#365,0.1635);
#160=CIRCLE($,#368,0.28);
#161=CIRCLE($,#369,0.222032193587559);
#162=CIRCLE($,#371,0.211);
#163=CIRCLE($,#372,0.211);
#164=CIRCLE($,#374,0.2115);
#165=CIRCLE($,#377,0.1055);
#166=CIRCLE($,#379,0.135);
#167=CIRCLE($,#380,0.1055);
#168=CIRCLE($,#383,0.1055);
#169=CIRCLE($,#385,0.135);
#170=CIRCLE($,#386,0.1055);
#171=CIRCLE($,#389,0.76);
#172=CIRCLE($,#390,0.64);
#173=CIRCLE($,#392,1.);
#174=CIRCLE($,#394,0.64);
#175=CIRCLE($,#396,1.07);
#176=CIRCLE($,#398,1.11);
#177=CIRCLE($,#400,1.11);
#178=CIRCLE($,#402,1.07);
#179=CIRCLE($,#404,1.);
#180=CIRCLE($,#407,0.6);
#181=CIRCLE($,#409,0.3175);
#182=CIRCLE($,#411,0.2575);
#183=CIRCLE($,#413,0.2575);
#184=CIRCLE($,#415,0.4);
#185=CIRCLE($,#417,0.4);
#186=VERTEX_POINT($,#547);
#187=VERTEX_POINT($,#550);
#188=VERTEX_POINT($,#552);
#189=VERTEX_POINT($,#555);
#190=VERTEX_POINT($,#558);
#191=VERTEX_POINT($,#562);
#192=VERTEX_POINT($,#564);
#193=VERTEX_POINT($,#567);
#194=VERTEX_POINT($,#569);
#195=VERTEX_POINT($,#572);
#196=VERTEX_POINT($,#576);
#197=VERTEX_POINT($,#579);
#198=VERTEX_POINT($,#581);
#199=VERTEX_POINT($,#585);
#200=VERTEX_POINT($,#588);
#201=VERTEX_POINT($,#590);
#202=VERTEX_POINT($,#594);
#203=VERTEX_POINT($,#596);
#204=VERTEX_POINT($,#599);
#205=VERTEX_POINT($,#602);
#206=VERTEX_POINT($,#605);
#207=VERTEX_POINT($,#608);
#208=VERTEX_POINT($,#611);
#209=VERTEX_POINT($,#614);
#210=VERTEX_POINT($,#617);
#211=VERTEX_POINT($,#621);
#212=VERTEX_POINT($,#624);
#213=VERTEX_POINT($,#627);
#214=VERTEX_POINT($,#630);
#215=VERTEX_POINT($,#633);
#216=VERTEX_POINT($,#636);
#217=EDGE_CURVE($,#186,#186,#155,.T.);
#218=EDGE_CURVE($,#187,#187,#156,.T.);
#219=EDGE_CURVE($,#188,#188,#157,.T.);
#220=EDGE_CURVE($,#189,#189,#158,.T.);
#221=EDGE_CURVE($,#190,#190,#159,.T.);
#222=EDGE_CURVE($,#191,#191,#160,.T.);
#223=EDGE_CURVE($,#192,#192,#161,.T.);
#224=EDGE_CURVE($,#193,#193,#162,.T.);
#225=EDGE_CURVE($,#194,#194,#163,.T.);
#226=EDGE_CURVE($,#195,#195,#164,.T.);
#227=EDGE_CURVE($,#196,#196,#165,.T.);
#228=EDGE_CURVE($,#197,#197,#166,.T.);
#229=EDGE_CURVE($,#198,#198,#167,.T.);
#230=EDGE_CURVE($,#199,#199,#168,.T.);
#231=EDGE_CURVE($,#200,#200,#169,.T.);
#232=EDGE_CURVE($,#201,#201,#170,.T.);
#233=EDGE_CURVE($,#202,#202,#171,.T.);
#234=EDGE_CURVE($,#203,#203,#172,.T.);
#235=EDGE_CURVE($,#204,#204,#173,.T.);
#236=EDGE_CURVE($,#205,#205,#174,.T.);
#237=EDGE_CURVE($,#206,#206,#175,.T.);
#238=EDGE_CURVE($,#207,#207,#176,.T.);
#239=EDGE_CURVE($,#208,#208,#177,.T.);
#240=EDGE_CURVE($,#209,#209,#178,.T.);
#241=EDGE_CURVE($,#210,#210,#179,.T.);
#242=EDGE_CURVE($,#211,#211,#180,.T.);
#243=EDGE_CURVE($,#212,#212,#181,.T.);
#244=EDGE_CURVE($,#213,#213,#182,.T.);
#245=EDGE_CURVE($,#214,#214,#183,.T.);
#246=EDGE_CURVE($,#215,#215,#184,.T.);
#247=EDGE_CURVE($,#216,#216,#185,.T.);
#248=ORIENTED_EDGE($,*,*,#217,.T.);
#249=ORIENTED_EDGE($,*,*,#218,.F.);
#250=ORIENTED_EDGE($,*,*,#219,.F.);
#251=ORIENTED_EDGE($,*,*,#217,.F.);
#252=ORIENTED_EDGE($,*,*,#220,.F.);
#253=ORIENTED_EDGE($,*,*,#219,.T.);
#254=ORIENTED_EDGE($,*,*,#221,.F.);
#255=ORIENTED_EDGE($,*,*,#220,.T.);
#256=ORIENTED_EDGE($,*,*,#221,.T.);
#257=ORIENTED_EDGE($,*,*,#222,.F.);
#258=ORIENTED_EDGE($,*,*,#223,.F.);
#259=ORIENTED_EDGE($,*,*,#224,.F.);
#260=ORIENTED_EDGE($,*,*,#225,.F.);
#261=ORIENTED_EDGE($,*,*,#223,.T.);
#262=ORIENTED_EDGE($,*,*,#226,.F.);
#263=ORIENTED_EDGE($,*,*,#225,.T.);
#264=ORIENTED_EDGE($,*,*,#226,.T.);
#265=ORIENTED_EDGE($,*,*,#227,.T.);
#266=ORIENTED_EDGE($,*,*,#228,.F.);
#267=ORIENTED_EDGE($,*,*,#229,.F.);
#268=ORIENTED_EDGE($,*,*,#229,.T.);
#269=ORIENTED_EDGE($,*,*,#227,.F.);
#270=ORIENTED_EDGE($,*,*,#230,.T.);
#271=ORIENTED_EDGE($,*,*,#231,.F.);
#272=ORIENTED_EDGE($,*,*,#232,.F.);
#273=ORIENTED_EDGE($,*,*,#232,.T.);
#274=ORIENTED_EDGE($,*,*,#230,.F.);
#275=ORIENTED_EDGE($,*,*,#233,.T.);
#276=ORIENTED_EDGE($,*,*,#234,.T.);
#277=ORIENTED_EDGE($,*,*,#235,.T.);
#278=ORIENTED_EDGE($,*,*,#233,.F.);
#279=ORIENTED_EDGE($,*,*,#236,.F.);
#280=ORIENTED_EDGE($,*,*,#234,.F.);
#281=ORIENTED_EDGE($,*,*,#218,.T.);
#282=ORIENTED_EDGE($,*,*,#222,.T.);
#283=ORIENTED_EDGE($,*,*,#228,.T.);
#284=ORIENTED_EDGE($,*,*,#231,.T.);
#285=ORIENTED_EDGE($,*,*,#237,.F.);
#286=ORIENTED_EDGE($,*,*,#238,.F.);
#287=ORIENTED_EDGE($,*,*,#237,.T.);
#288=ORIENTED_EDGE($,*,*,#239,.F.);
#289=ORIENTED_EDGE($,*,*,#238,.T.);
#290=ORIENTED_EDGE($,*,*,#240,.F.);
#291=ORIENTED_EDGE($,*,*,#239,.T.);
#292=ORIENTED_EDGE($,*,*,#241,.F.);
#293=ORIENTED_EDGE($,*,*,#240,.T.);
#294=ORIENTED_EDGE($,*,*,#235,.F.);
#295=ORIENTED_EDGE($,*,*,#241,.T.);
#296=ORIENTED_EDGE($,*,*,#242,.F.);
#297=ORIENTED_EDGE($,*,*,#236,.T.);
#298=ORIENTED_EDGE($,*,*,#243,.F.);
#299=ORIENTED_EDGE($,*,*,#242,.T.);
#300=ORIENTED_EDGE($,*,*,#244,.F.);
#301=ORIENTED_EDGE($,*,*,#243,.T.);
#302=ORIENTED_EDGE($,*,*,#245,.F.);
#303=ORIENTED_EDGE($,*,*,#244,.T.);
#304=ORIENTED_EDGE($,*,*,#246,.F.);
#305=ORIENTED_EDGE($,*,*,#245,.T.);
#306=ORIENTED_EDGE($,*,*,#247,.F.);
#307=ORIENTED_EDGE($,*,*,#246,.T.);
#308=ORIENTED_EDGE($,*,*,#224,.T.);
#309=ORIENTED_EDGE($,*,*,#247,.T.);
#310=CONICAL_SURFACE($,#357,0.07825,59.);
#311=CONICAL_SURFACE($,#359,0.1075,45.);
#312=CONICAL_SURFACE($,#364,0.167765599702506,1.7899);
#313=CONICAL_SURFACE($,#367,0.14,45.);
#314=CONICAL_SURFACE($,#373,0.217671838397398,1.7899);
#315=CONICAL_SURFACE($,#376,0.05275,59.);
#316=CONICAL_SURFACE($,#378,0.12025,45.);
#317=CONICAL_SURFACE($,#382,0.05275,59.);
#318=CONICAL_SURFACE($,#384,0.12025,45.);
#319=CONICAL_SURFACE($,#397,1.09,45.);
#320=CONICAL_SURFACE($,#401,1.09,45.);
#321=CONICAL_SURFACE($,#406,0.62,45.0000000000002);
#322=CONICAL_SURFACE($,#410,0.2875,45.);
#323=ADVANCED_FACE($,(#68),#310,.F.);
#324=ADVANCED_FACE($,(#69,#31),#311,.F.);
#325=ADVANCED_FACE($,(#70,#32),#22,.F.);
#326=ADVANCED_FACE($,(#71,#33),#312,.F.);
#327=ADVANCED_FACE($,(#34,#35),#14,.T.);
#328=ADVANCED_FACE($,(#72,#36),#313,.F.);
#329=ADVANCED_FACE($,(#73,#37),#23,.F.);
#330=ADVANCED_FACE($,(#74,#38),#314,.F.);
#331=ADVANCED_FACE($,(#39,#40),#15,.T.);
#332=ADVANCED_FACE($,(#75),#315,.F.);
#333=ADVANCED_FACE($,(#76,#41),#316,.F.);
#334=ADVANCED_FACE($,(#77,#42),#24,.F.);
#335=ADVANCED_FACE($,(#78),#317,.F.);
#336=ADVANCED_FACE($,(#79,#43),#318,.F.);
#337=ADVANCED_FACE($,(#80,#44),#25,.F.);
#338=ADVANCED_FACE($,(#81,#45),#13,.F.);
#339=ADVANCED_FACE($,(#82,#46),#16,.T.);
#340=ADVANCED_FACE($,(#83,#47),#26,.T.);
#341=ADVANCED_FACE($,(#48,#49,#50,#51,#52),#17,.T.);
#342=ADVANCED_FACE($,(#84,#53),#319,.T.);
#343=ADVANCED_FACE($,(#85,#54),#27,.T.);
#344=ADVANCED_FACE($,(#86,#55),#320,.T.);
#345=ADVANCED_FACE($,(#56,#57),#18,.T.);
#346=ADVANCED_FACE($,(#87,#58),#28,.T.);
#347=ADVANCED_FACE($,(#88,#59),#321,.T.);
#348=ADVANCED_FACE($,(#60,#61),#19,.T.);
#349=ADVANCED_FACE($,(#89,#62),#322,.F.);
#350=ADVANCED_FACE($,(#90,#63),#29,.F.);
#351=ADVANCED_FACE($,(#91,#64),#20,.T.);
#352=ADVANCED_FACE($,(#92,#65),#30,.F.);
#353=ADVANCED_FACE($,(#66,#67),#21,.T.);
#354=CLOSED_SHELL($,(#323,#324,#325,#326,#327,#328,#329,#330,#331,#332,
#333,#334,#335,#336,#337,#338,#339,#340,#341,#342,#343,#344,#345,#346,#347,
#348,#349,#350,#351,#352,#353));
#355=MANIFOLD_SOLID_BREP('Solid1',#354);
#356=AXIS2_PLACEMENT_3D('placement',#545,#419,#420);
#357=AXIS2_PLACEMENT_3D($,#546,#421,#422);
#358=AXIS2_PLACEMENT_3D($,#548,#423,#424);
#359=AXIS2_PLACEMENT_3D($,#549,#425,#426);
#360=AXIS2_PLACEMENT_3D($,#551,#427,#428);
#361=AXIS2_PLACEMENT_3D($,#553,#429,#430);
#362=AXIS2_PLACEMENT_3D($,#554,#431,#432);
#363=AXIS2_PLACEMENT_3D($,#556,#433,#434);
#364=AXIS2_PLACEMENT_3D($,#557,#435,#436);
#365=AXIS2_PLACEMENT_3D($,#559,#437,#438);
#366=AXIS2_PLACEMENT_3D($,#560,#439,#440);
#367=AXIS2_PLACEMENT_3D($,#561,#441,#442);
#368=AXIS2_PLACEMENT_3D($,#563,#443,#444);
#369=AXIS2_PLACEMENT_3D($,#565,#445,#446);
#370=AXIS2_PLACEMENT_3D($,#566,#447,#448);
#371=AXIS2_PLACEMENT_3D($,#568,#449,#450);
#372=AXIS2_PLACEMENT_3D($,#570,#451,#452);
#373=AXIS2_PLACEMENT_3D($,#571,#453,#454);
#374=AXIS2_PLACEMENT_3D($,#573,#455,#456);
#375=AXIS2_PLACEMENT_3D($,#574,#457,#458);
#376=AXIS2_PLACEMENT_3D($,#575,#459,#460);
#377=AXIS2_PLACEMENT_3D($,#577,#461,#462);
#378=AXIS2_PLACEMENT_3D($,#578,#463,#464);
#379=AXIS2_PLACEMENT_3D($,#580,#465,#466);
#380=AXIS2_PLACEMENT_3D($,#582,#467,#468);
#381=AXIS2_PLACEMENT_3D($,#583,#469,#470);
#382=AXIS2_PLACEMENT_3D($,#584,#471,#472);
#383=AXIS2_PLACEMENT_3D($,#586,#473,#474);
#384=AXIS2_PLACEMENT_3D($,#587,#475,#476);
#385=AXIS2_PLACEMENT_3D($,#589,#477,#478);
#386=AXIS2_PLACEMENT_3D($,#591,#479,#480);
#387=AXIS2_PLACEMENT_3D($,#592,#481,#482);
#388=AXIS2_PLACEMENT_3D($,#593,#483,#484);
#389=AXIS2_PLACEMENT_3D($,#595,#485,#486);
#390=AXIS2_PLACEMENT_3D($,#597,#487,#488);
#391=AXIS2_PLACEMENT_3D($,#598,#489,#490);
#392=AXIS2_PLACEMENT_3D($,#600,#491,#492);
#393=AXIS2_PLACEMENT_3D($,#601,#493,#494);
#394=AXIS2_PLACEMENT_3D($,#603,#495,#496);
#395=AXIS2_PLACEMENT_3D($,#604,#497,#498);
#396=AXIS2_PLACEMENT_3D($,#606,#499,#500);
#397=AXIS2_PLACEMENT_3D($,#607,#501,#502);
#398=AXIS2_PLACEMENT_3D($,#609,#503,#504);
#399=AXIS2_PLACEMENT_3D($,#610,#505,#506);
#400=AXIS2_PLACEMENT_3D($,#612,#507,#508);
#401=AXIS2_PLACEMENT_3D($,#613,#509,#510);
#402=AXIS2_PLACEMENT_3D($,#615,#511,#512);
#403=AXIS2_PLACEMENT_3D($,#616,#513,#514);
#404=AXIS2_PLACEMENT_3D($,#618,#515,#516);
#405=AXIS2_PLACEMENT_3D($,#619,#517,#518);
#406=AXIS2_PLACEMENT_3D($,#620,#519,#520);
#407=AXIS2_PLACEMENT_3D($,#622,#521,#522);
#408=AXIS2_PLACEMENT_3D($,#623,#523,#524);
#409=AXIS2_PLACEMENT_3D($,#625,#525,#526);
#410=AXIS2_PLACEMENT_3D($,#626,#527,#528);
#411=AXIS2_PLACEMENT_3D($,#628,#529,#530);
#412=AXIS2_PLACEMENT_3D($,#629,#531,#532);
#413=AXIS2_PLACEMENT_3D($,#631,#533,#534);
#414=AXIS2_PLACEMENT_3D($,#632,#535,#536);
#415=AXIS2_PLACEMENT_3D($,#634,#537,#538);
#416=AXIS2_PLACEMENT_3D($,#635,#539,#540);
#417=AXIS2_PLACEMENT_3D($,#637,#541,#542);
#418=AXIS2_PLACEMENT_3D($,#638,#543,#544);
#419=DIRECTION('axis',(0.,0.,1.));
#420=DIRECTION('refdir',(1.,0.,0.));
#421=DIRECTION('center_axis',(-1.,0.,0.));
#422=DIRECTION('ref_axis',(0.,0.,1.));
#423=DIRECTION('center_axis',(-1.,0.,0.));
#424=DIRECTION('ref_axis',(0.,0.,1.));
#425=DIRECTION('center_axis',(-1.,0.,0.));
#426=DIRECTION('ref_axis',(0.,0.,1.));
#427=DIRECTION('center_axis',(1.,0.,0.));
#428=DIRECTION('ref_axis',(0.,0.,1.));
#429=DIRECTION('center_axis',(-1.,0.,0.));
#430=DIRECTION('ref_axis',(0.,0.,1.));
#431=DIRECTION('center_axis',(-1.,0.,0.));
#432=DIRECTION('ref_axis',(0.,0.,1.));
#433=DIRECTION('center_axis',(1.,0.,0.));
#434=DIRECTION('ref_axis',(0.,0.,1.));
#435=DIRECTION('center_axis',(-1.,0.,0.));
#436=DIRECTION('ref_axis',(0.,0.,1.));
#437=DIRECTION('center_axis',(-1.,0.,0.));
#438=DIRECTION('ref_axis',(0.,0.,1.));
#439=DIRECTION('center_axis',(-1.,0.,0.));
#440=DIRECTION('ref_axis',(0.,0.,1.));
#441=DIRECTION('center_axis',(-1.,0.,0.));
#442=DIRECTION('ref_axis',(0.,-1.,0.));
#443=DIRECTION('center_axis',(1.,0.,0.));
#444=DIRECTION('ref_axis',(0.,-1.,0.));
#445=DIRECTION('center_axis',(-1.,0.,0.));
#446=DIRECTION('ref_axis',(0.,-1.,0.));
#447=DIRECTION('center_axis',(-1.,0.,0.));
#448=DIRECTION('ref_axis',(0.,-1.,0.));
#449=DIRECTION('center_axis',(-1.,0.,0.));
#450=DIRECTION('ref_axis',(0.,-1.,0.));
#451=DIRECTION('center_axis',(1.,0.,0.));
#452=DIRECTION('ref_axis',(0.,-1.,0.));
#453=DIRECTION('center_axis',(-1.,0.,0.));
#454=DIRECTION('ref_axis',(0.,-1.,0.));
#455=DIRECTION('center_axis',(-1.,0.,0.));
#456=DIRECTION('ref_axis',(0.,-1.,0.));
#457=DIRECTION('center_axis',(-1.,0.,0.));
#458=DIRECTION('ref_axis',(0.,-1.,0.));
#459=DIRECTION('center_axis',(-1.,0.,0.));
#460=DIRECTION('ref_axis',(0.,0.,1.));
#461=DIRECTION('center_axis',(-1.,0.,0.));
#462=DIRECTION('ref_axis',(0.,0.,1.));
#463=DIRECTION('center_axis',(-1.,0.,0.));
#464=DIRECTION('ref_axis',(0.,0.,1.));
#465=DIRECTION('center_axis',(1.,0.,0.));
#466=DIRECTION('ref_axis',(0.,0.,1.));
#467=DIRECTION('center_axis',(-1.,0.,0.));
#468=DIRECTION('ref_axis',(0.,0.,1.));
#469=DIRECTION('center_axis',(-1.,0.,0.));
#470=DIRECTION('ref_axis',(0.,0.,1.));
#471=DIRECTION('center_axis',(-1.,0.,0.));
#472=DIRECTION('ref_axis',(0.,0.,1.));
#473=DIRECTION('center_axis',(-1.,0.,0.));
#474=DIRECTION('ref_axis',(0.,0.,1.));
#475=DIRECTION('center_axis',(-1.,0.,0.));
#476=DIRECTION('ref_axis',(0.,0.,1.));
#477=DIRECTION('center_axis',(1.,0.,0.));
#478=DIRECTION('ref_axis',(0.,0.,1.));
#479=DIRECTION('center_axis',(-1.,0.,0.));
#480=DIRECTION('ref_axis',(0.,0.,1.));
#481=DIRECTION('center_axis',(-1.,0.,0.));
#482=DIRECTION('ref_axis',(0.,0.,1.));
#483=DIRECTION('center_axis',(1.,0.,0.));
#484=DIRECTION('ref_axis',(0.,0.,-1.));
#485=DIRECTION('center_axis',(1.,0.,0.));
#486=DIRECTION('ref_axis',(0.,-1.,1.22464679914735E-016));
#487=DIRECTION('center_axis',(-1.,0.,0.));
#488=DIRECTION('ref_axis',(0.,-1.,1.22464679914735E-016));
#489=DIRECTION('center_axis',(1.,0.,0.));
#490=DIRECTION('ref_axis',(0.,0.,-1.));
#491=DIRECTION('center_axis',(1.,0.,0.));
#492=DIRECTION('ref_axis',(0.,1.,0.));
#493=DIRECTION('center_axis',(1.,0.,0.));
#494=DIRECTION('ref_axis',(0.,1.,0.));
#495=DIRECTION('center_axis',(1.,0.,0.));
#496=DIRECTION('ref_axis',(0.,1.,0.));
#497=DIRECTION('center_axis',(-1.,0.,0.));
#498=DIRECTION('ref_axis',(0.,0.,1.));
#499=DIRECTION('center_axis',(1.,0.,0.));
#500=DIRECTION('ref_axis',(0.,1.,0.));
#501=DIRECTION('center_axis',(1.,0.,0.));
#502=DIRECTION('ref_axis',(0.,1.,0.));
#503=DIRECTION('center_axis',(1.,0.,0.));
#504=DIRECTION('ref_axis',(0.,1.,0.));
#505=DIRECTION('center_axis',(1.,0.,0.));
#506=DIRECTION('ref_axis',(0.,1.,0.));
#507=DIRECTION('center_axis',(1.,0.,0.));
#508=DIRECTION('ref_axis',(0.,1.,0.));
#509=DIRECTION('center_axis',(-1.,0.,0.));
#510=DIRECTION('ref_axis',(0.,1.,0.));
#511=DIRECTION('center_axis',(1.,0.,0.));
#512=DIRECTION('ref_axis',(0.,1.,0.));
#513=DIRECTION('center_axis',(1.,0.,0.));
#514=DIRECTION('ref_axis',(0.,0.,-1.));
#515=DIRECTION('center_axis',(1.,0.,0.));
#516=DIRECTION('ref_axis',(0.,1.,0.));
#517=DIRECTION('center_axis',(1.,0.,0.));
#518=DIRECTION('ref_axis',(0.,1.,0.));
#519=DIRECTION('center_axis',(-1.,0.,0.));
#520=DIRECTION('ref_axis',(0.,1.,0.));
#521=DIRECTION('center_axis',(1.,0.,0.));
#522=DIRECTION('ref_axis',(0.,1.,0.));
#523=DIRECTION('center_axis',(1.,0.,0.));
#524=DIRECTION('ref_axis',(0.,0.,-1.));
#525=DIRECTION('center_axis',(1.,0.,0.));
#526=DIRECTION('ref_axis',(0.,1.,0.));
#527=DIRECTION('center_axis',(1.,0.,0.));
#528=DIRECTION('ref_axis',(0.,1.,0.));
#529=DIRECTION('center_axis',(1.,0.,0.));
#530=DIRECTION('ref_axis',(0.,1.,0.));
#531=DIRECTION('center_axis',(1.,0.,0.));
#532=DIRECTION('ref_axis',(0.,1.,0.));
#533=DIRECTION('center_axis',(1.,0.,0.));
#534=DIRECTION('ref_axis',(0.,1.,0.));
#535=DIRECTION('center_axis',(-1.,0.,0.));
#536=DIRECTION('ref_axis',(0.,0.,1.));
#537=DIRECTION('center_axis',(1.,0.,0.));
#538=DIRECTION('ref_axis',(0.,1.,0.));
#539=DIRECTION('center_axis',(1.,0.,0.));
#540=DIRECTION('ref_axis',(0.,1.,0.));
#541=DIRECTION('center_axis',(1.,0.,0.));
#542=DIRECTION('ref_axis',(0.,1.,0.));
#543=DIRECTION('center_axis',(1.,0.,0.));
#544=DIRECTION('ref_axis',(0.,0.,-1.));
#545=CARTESIAN_POINT('',(0.,0.,0.));
#546=CARTESIAN_POINT('Origin',(0.607017343438906,0.812,0.));
#547=CARTESIAN_POINT('',(0.56,0.812,0.1565));
#548=CARTESIAN_POINT('Origin',(0.56,0.812,0.));
#549=CARTESIAN_POINT('Origin',(0.1075,0.812,0.));
#550=CARTESIAN_POINT('',(-9.83465277719135E-017,0.812,0.215));
#551=CARTESIAN_POINT('Origin',(-8.74191357972564E-017,0.812,0.));
#552=CARTESIAN_POINT('',(0.0443548824513187,0.812,-0.170645117548681));
#553=CARTESIAN_POINT('Origin',(0.0443548824513187,0.812,0.));
#554=CARTESIAN_POINT('Origin',(0.28,0.812,0.));
#555=CARTESIAN_POINT('',(0.273,0.812,-0.1565));
#556=CARTESIAN_POINT('Origin',(0.273,0.812,0.));
#557=CARTESIAN_POINT('Origin',(0.1365,0.812,0.));
#558=CARTESIAN_POINT('',(0.273,0.812,0.1635));
#559=CARTESIAN_POINT('Origin',(0.273,0.812,0.));
#560=CARTESIAN_POINT('Origin',(0.273,0.812,0.));
#561=CARTESIAN_POINT('Origin',(0.14,0.,0.));
#562=CARTESIAN_POINT('',(-9.83465277719135E-017,-0.28,0.));
#563=CARTESIAN_POINT('Origin',(-8.74191357972564E-017,0.,0.));
#564=CARTESIAN_POINT('',(0.0579678064124405,0.222032193587559,-2.7191101518467E-017));
#565=CARTESIAN_POINT('Origin',(0.0579678064124405,0.,0.));
#566=CARTESIAN_POINT('Origin',(4.35558962713431,0.,0.));
#567=CARTESIAN_POINT('',(2.415,0.211,-2.58400474620092E-017));
#568=CARTESIAN_POINT('Origin',(2.415,0.,0.));
#569=CARTESIAN_POINT('',(0.395,0.211,2.58400474620092E-017));
#570=CARTESIAN_POINT('Origin',(0.395,0.,0.));
#571=CARTESIAN_POINT('Origin',(0.1975,0.,0.));
#572=CARTESIAN_POINT('',(0.395,-0.2115,0.));
#573=CARTESIAN_POINT('Origin',(0.395,0.,0.));
#574=CARTESIAN_POINT('Origin',(0.395,0.,0.));
#575=CARTESIAN_POINT('Origin',(1.0316953976537,-1.74838271594513E-016,-0.81));
#576=CARTESIAN_POINT('',(1.,-1.74838271594513E-016,-0.7045));
#577=CARTESIAN_POINT('Origin',(1.,-1.74838271594513E-016,-0.81));
#578=CARTESIAN_POINT('Origin',(0.0147499999999999,-1.74838271594513E-016,
-0.81));
#579=CARTESIAN_POINT('',(-9.83465277719135E-017,-1.74838271594513E-016,
-0.675));
#580=CARTESIAN_POINT('Origin',(-9.83465277719135E-017,-1.74838271594513E-016,
-0.81));
#581=CARTESIAN_POINT('',(0.0294999999999999,-1.74838271594513E-016,-0.7045));
#582=CARTESIAN_POINT('Origin',(0.0295,-1.74838271594513E-016,-0.81));
#583=CARTESIAN_POINT('Origin',(0.5,-1.74838271594513E-016,-0.81));
#584=CARTESIAN_POINT('Origin',(1.0316953976537,0.,0.81));
#585=CARTESIAN_POINT('',(1.,0.,0.9155));
#586=CARTESIAN_POINT('Origin',(1.,0.,0.81));
#587=CARTESIAN_POINT('Origin',(0.0147499999999999,0.,0.81));
#588=CARTESIAN_POINT('',(-9.83465277719135E-017,0.,0.945));
#589=CARTESIAN_POINT('Origin',(-9.83465277719135E-017,0.,0.81));
#590=CARTESIAN_POINT('',(0.0294999999999999,0.,0.9155));
#591=CARTESIAN_POINT('Origin',(0.0295,0.,0.81));
#592=CARTESIAN_POINT('Origin',(0.5,0.,0.81));
#593=CARTESIAN_POINT('Origin',(2.494,0.,0.));
#594=CARTESIAN_POINT('',(2.374,0.76,0.));
#595=CARTESIAN_POINT('Origin',(2.374,0.,0.));
#596=CARTESIAN_POINT('',(2.494,0.64,-1.56754790290861E-016));
#597=CARTESIAN_POINT('Origin',(2.494,0.,0.));
#598=CARTESIAN_POINT('Origin',(2.374,0.82,0.));
#599=CARTESIAN_POINT('',(2.374,1.,0.));
#600=CARTESIAN_POINT('Origin',(2.374,0.,0.));
#601=CARTESIAN_POINT('Origin',(2.6765,0.,0.));
#602=CARTESIAN_POINT('',(2.979,0.64,0.));
#603=CARTESIAN_POINT('Origin',(2.979,0.,0.));
#604=CARTESIAN_POINT('Origin',(-9.83465277719135E-017,0.535,0.));
#605=CARTESIAN_POINT('',(-1.96693055543827E-016,1.07,0.));
#606=CARTESIAN_POINT('Origin',(-3.49676543189026E-016,0.,0.));
#607=CARTESIAN_POINT('Origin',(0.0199999999999999,0.,0.));
#608=CARTESIAN_POINT('',(0.0399999999999998,1.11,0.));
#609=CARTESIAN_POINT('Origin',(0.0399999999999998,0.,0.));
#610=CARTESIAN_POINT('Origin',(1.185,0.,0.));
#611=CARTESIAN_POINT('',(2.33,1.11,0.));
#612=CARTESIAN_POINT('Origin',(2.33,0.,0.));
#613=CARTESIAN_POINT('Origin',(2.35,0.,0.));
#614=CARTESIAN_POINT('',(2.37,1.07,0.));
#615=CARTESIAN_POINT('Origin',(2.37,0.,0.));
#616=CARTESIAN_POINT('Origin',(2.37,1.035,0.));
#617=CARTESIAN_POINT('',(2.37,1.,0.));
#618=CARTESIAN_POINT('Origin',(2.37,0.,0.));
#619=CARTESIAN_POINT('Origin',(2.372,0.,0.));
#620=CARTESIAN_POINT('Origin',(2.999,0.,0.));
#621=CARTESIAN_POINT('',(3.019,0.6,0.));
#622=CARTESIAN_POINT('Origin',(3.019,0.,0.));
#623=CARTESIAN_POINT('Origin',(3.019,0.45875,0.));
#624=CARTESIAN_POINT('',(3.019,0.3175,0.));
#625=CARTESIAN_POINT('Origin',(3.019,0.,0.));
#626=CARTESIAN_POINT('Origin',(2.989,0.,0.));
#627=CARTESIAN_POINT('',(2.959,0.2575,0.));
#628=CARTESIAN_POINT('Origin',(2.959,0.,0.));
#629=CARTESIAN_POINT('Origin',(2.9365,0.,0.));
#630=CARTESIAN_POINT('',(2.914,0.2575,0.));
#631=CARTESIAN_POINT('Origin',(2.914,0.,0.));
#632=CARTESIAN_POINT('Origin',(2.914,0.32875,0.));
#633=CARTESIAN_POINT('',(2.914,0.4,0.));
#634=CARTESIAN_POINT('Origin',(2.914,0.,0.));
#635=CARTESIAN_POINT('Origin',(2.6645,0.,0.));
#636=CARTESIAN_POINT('',(2.415,0.4,0.));
#637=CARTESIAN_POINT('Origin',(2.415,0.,0.));
#638=CARTESIAN_POINT('Origin',(2.415,0.2,0.));
#639=UNCERTAINTY_MEASURE_WITH_UNIT(LENGTH_MEASURE(0.000393700787401575),
#641,'DISTANCE_ACCURACY_VALUE',
'Maximum model space distance between geometric entities at asserted c
onnectivities');
#640=(
GEOMETRIC_REPRESENTATION_CONTEXT(3)
GLOBAL_UNCERTAINTY_ASSIGNED_CONTEXT((#639))
GLOBAL_UNIT_ASSIGNED_CONTEXT((#641,#647,#644))
REPRESENTATION_CONTEXT('','3D')
);
#641=(
CONVERSION_BASED_UNIT('__CONSTANT UNIT inch',#643)
LENGTH_UNIT()
NAMED_UNIT(#646)
);
#642=(
LENGTH_UNIT()
NAMED_UNIT(*)
SI_UNIT(.MILLI.,.METRE.)
);
#643=LENGTH_MEASURE_WITH_UNIT(LENGTH_MEASURE(25.4),#642);
#644=(
NAMED_UNIT(*)
SI_UNIT($,.STERADIAN.)
SOLID_ANGLE_UNIT()
);
#645=DIMENSIONAL_EXPONENTS(0.,0.,0.,0.,0.,0.,0.);
#646=DIMENSIONAL_EXPONENTS(1.,0.,0.,0.,0.,0.,0.);
#647=(
CONVERSION_BASED_UNIT('degree',#649)
NAMED_UNIT(#645)
PLANE_ANGLE_UNIT()
);
#648=(
NAMED_UNIT(*)
PLANE_ANGLE_UNIT()
SI_UNIT($,.RADIAN.)
);
#649=PLANE_ANGLE_MEASURE_WITH_UNIT(PLANE_ANGLE_MEASURE(0.01745329252),#648);
#650=SHAPE_DEFINITION_REPRESENTATION(#651,#652);
#651=PRODUCT_DEFINITION_SHAPE('',$,#654);
#652=SHAPE_REPRESENTATION('',(#356),#640);
#653=PRODUCT_DEFINITION_CONTEXT('3D Mechanical Parts',#657,'design');
#654=PRODUCT_DEFINITION('ME101','ME101',#655,#653);
#655=PRODUCT_DEFINITION_FORMATION('',$,#659);
#656=APPLICATION_PROTOCOL_DEFINITION('international standard',
'automotive_design',2009,#657);
#657=APPLICATION_CONTEXT(
'Core Data for Automotive Mechanical Design Process');
#658=PRODUCT_CONTEXT('3D Mechanical Parts',#657,'mechanical');
#659=PRODUCT('ME101','ME101',$,(#658));
#660=PRESENTATION_STYLE_ASSIGNMENT((#661));
#661=SURFACE_STYLE_USAGE(.BOTH.,#662);
#662=SURFACE_SIDE_STYLE($,(#663));
#663=SURFACE_STYLE_FILL_AREA(#664);
#664=FILL_AREA_STYLE($,(#665));
#665=FILL_AREA_STYLE_COLOUR($,#666);
#666=COLOUR_RGB('',0.63921568627451,0.63921568627451,0.686274509803922);
ENDSEC;
END-ISO-10303-21;
