ISO-10303-21;
HEADER;
/* Generated by software containing ST-Developer
 * from STEP Tools, Inc. (www.steptools.com) 
 */

FILE_DESCRIPTION(
/* description */ (''),
/* implementation_level */ '2;1');

FILE_NAME(
/* name */ 'S:\\Marketing\\CAD Models\\MIT\\MITH-060P.stp',
/* time_stamp */ '2016-05-02T13:30:04-05:00',
/* author */ ('scottg'),
/* organization */ ('FasTest,Inc.'),
/* preprocessor_version */ 'ST-DEVELOPER v16.1',
/* originating_system */ 'Autodesk Inventor 2016',
/* authorisation */ '');

FILE_SCHEMA (('AUTOMOTIVE_DESIGN { 1 0 10303 214 3 1 1 }'));
ENDSEC;

DATA;
#10=MECHANICAL_DESIGN_GEOMETRIC_PRESENTATION_REPRESENTATION('',(#222,#223,
#224,#225,#226,#227,#228,#229,#230,#235,#231,#232,#233,#234,#236,#237,#238,
#239,#240,#241,#242,#243,#244),#463);
#11=SHAPE_REPRESENTATION_RELATIONSHIP('SRR','None',#475,#12);
#12=ADVANCED_BREP_SHAPE_REPRESENTATION('',(#13),#462);
#13=MANIFOLD_SOLID_BREP('Solid1',#267);
#14=PLANE('',#281);
#15=PLANE('',#293);
#16=PLANE('',#294);
#17=PLANE('',#296);
#18=CYLINDRICAL_SURFACE('',#278,0.3);
#19=CYLINDRICAL_SURFACE('',#282,0.202);
#20=CYLINDRICAL_SURFACE('',#301,0.2785);
#21=CYLINDRICAL_SURFACE('',#307,0.4844);
#22=CYLINDRICAL_SURFACE('',#310,0.4844);
#23=CONICAL_SURFACE('',#274,0.171224434784034,50.9999999999999);
#24=CONICAL_SURFACE('',#276,0.132267844570355,39.);
#25=CONICAL_SURFACE('',#285,0.195549395948772,38.9999999999999);
#26=CONICAL_SURFACE('',#286,0.171224434784034,50.9999999999999);
#27=CONICAL_SURFACE('',#287,0.132267844570355,39.);
#28=CONICAL_SURFACE('',#289,0.129059968583695,51.);
#29=CONICAL_SURFACE('',#291,0.140641121786707,38.9999999999999);
#30=CONICAL_SURFACE('',#303,0.38145,60.);
#31=CONICAL_SURFACE('',#305,0.4644,44.9999999999999);
#32=CONICAL_SURFACE('',#309,0.259,60.);
#33=FACE_BOUND('',#76,.T.);
#34=FACE_BOUND('',#78,.T.);
#35=FACE_BOUND('',#80,.T.);
#36=FACE_BOUND('',#82,.T.);
#37=FACE_BOUND('',#84,.T.);
#38=FACE_BOUND('',#87,.T.);
#39=FACE_BOUND('',#89,.T.);
#40=FACE_BOUND('',#91,.T.);
#41=FACE_BOUND('',#93,.T.);
#42=FACE_BOUND('',#95,.T.);
#43=FACE_BOUND('',#97,.T.);
#44=FACE_BOUND('',#100,.T.);
#45=FACE_BOUND('',#102,.T.);
#46=FACE_BOUND('',#104,.T.);
#47=FACE_BOUND('',#106,.T.);
#48=FACE_BOUND('',#108,.T.);
#49=FACE_BOUND('',#110,.T.);
#50=FACE_BOUND('',#112,.T.);
#51=FACE_BOUND('',#114,.T.);
#52=FACE_BOUND('',#116,.T.);
#53=FACE_OUTER_BOUND('',#75,.T.);
#54=FACE_OUTER_BOUND('',#77,.T.);
#55=FACE_OUTER_BOUND('',#79,.T.);
#56=FACE_OUTER_BOUND('',#81,.T.);
#57=FACE_OUTER_BOUND('',#83,.T.);
#58=FACE_OUTER_BOUND('',#85,.T.);
#59=FACE_OUTER_BOUND('',#86,.T.);
#60=FACE_OUTER_BOUND('',#88,.T.);
#61=FACE_OUTER_BOUND('',#90,.T.);
#62=FACE_OUTER_BOUND('',#92,.T.);
#63=FACE_OUTER_BOUND('',#94,.T.);
#64=FACE_OUTER_BOUND('',#96,.T.);
#65=FACE_OUTER_BOUND('',#98,.T.);
#66=FACE_OUTER_BOUND('',#99,.T.);
#67=FACE_OUTER_BOUND('',#101,.T.);
#68=FACE_OUTER_BOUND('',#103,.T.);
#69=FACE_OUTER_BOUND('',#105,.T.);
#70=FACE_OUTER_BOUND('',#107,.T.);
#71=FACE_OUTER_BOUND('',#109,.T.);
#72=FACE_OUTER_BOUND('',#111,.T.);
#73=FACE_OUTER_BOUND('',#113,.T.);
#74=FACE_OUTER_BOUND('',#115,.T.);
#75=EDGE_LOOP('',(#177));
#76=EDGE_LOOP('',(#178));
#77=EDGE_LOOP('',(#179));
#78=EDGE_LOOP('',(#180));
#79=EDGE_LOOP('',(#181));
#80=EDGE_LOOP('',(#182));
#81=EDGE_LOOP('',(#183));
#82=EDGE_LOOP('',(#184));
#83=EDGE_LOOP('',(#185));
#84=EDGE_LOOP('',(#186));
#85=EDGE_LOOP('',(#187));
#86=EDGE_LOOP('',(#188));
#87=EDGE_LOOP('',(#189));
#88=EDGE_LOOP('',(#190));
#89=EDGE_LOOP('',(#191));
#90=EDGE_LOOP('',(#192));
#91=EDGE_LOOP('',(#193));
#92=EDGE_LOOP('',(#194));
#93=EDGE_LOOP('',(#195));
#94=EDGE_LOOP('',(#196));
#95=EDGE_LOOP('',(#197));
#96=EDGE_LOOP('',(#198));
#97=EDGE_LOOP('',(#199));
#98=EDGE_LOOP('',(#200));
#99=EDGE_LOOP('',(#201));
#100=EDGE_LOOP('',(#202));
#101=EDGE_LOOP('',(#203));
#102=EDGE_LOOP('',(#204));
#103=EDGE_LOOP('',(#205));
#104=EDGE_LOOP('',(#206));
#105=EDGE_LOOP('',(#207));
#106=EDGE_LOOP('',(#208));
#107=EDGE_LOOP('',(#209));
#108=EDGE_LOOP('',(#210));
#109=EDGE_LOOP('',(#211));
#110=EDGE_LOOP('',(#212));
#111=EDGE_LOOP('',(#213));
#112=EDGE_LOOP('',(#214));
#113=EDGE_LOOP('',(#215));
#114=EDGE_LOOP('',(#216));
#115=EDGE_LOOP('',(#217));
#116=EDGE_LOOP('',(#218));
#117=CIRCLE('',#270,0.119565259513861);
#118=CIRCLE('',#271,0.171638252513594);
#119=CIRCLE('',#273,0.1468583908);
#120=CIRCLE('',#275,0.189098791897545);
#121=CIRCLE('',#277,0.153350077670524);
#122=CIRCLE('',#279,0.3);
#123=CIRCLE('',#280,0.3);
#124=CIRCLE('',#283,0.202);
#125=CIRCLE('',#284,0.202);
#126=CIRCLE('',#288,0.111185611470185);
#127=CIRCLE('',#290,0.146934325697206);
#128=CIRCLE('',#292,0.134347917876209);
#129=CIRCLE('',#295,0.2395);
#130=CIRCLE('',#297,0.4444);
#131=CIRCLE('',#299,0.2785);
#132=CIRCLE('',#300,0.341);
#133=CIRCLE('',#302,0.2785);
#134=CIRCLE('',#304,0.4844);
#135=CIRCLE('',#306,0.4844);
#136=CIRCLE('',#308,0.4844);
#137=VERTEX_POINT('',#399);
#138=VERTEX_POINT('',#401);
#139=VERTEX_POINT('',#404);
#140=VERTEX_POINT('',#407);
#141=VERTEX_POINT('',#410);
#142=VERTEX_POINT('',#413);
#143=VERTEX_POINT('',#415);
#144=VERTEX_POINT('',#419);
#145=VERTEX_POINT('',#421);
#146=VERTEX_POINT('',#426);
#147=VERTEX_POINT('',#429);
#148=VERTEX_POINT('',#432);
#149=VERTEX_POINT('',#436);
#150=VERTEX_POINT('',#439);
#151=VERTEX_POINT('',#442);
#152=VERTEX_POINT('',#444);
#153=VERTEX_POINT('',#447);
#154=VERTEX_POINT('',#450);
#155=VERTEX_POINT('',#453);
#156=VERTEX_POINT('',#456);
#157=EDGE_CURVE('',#137,#137,#117,.T.);
#158=EDGE_CURVE('',#138,#138,#118,.T.);
#159=EDGE_CURVE('',#139,#139,#119,.T.);
#160=EDGE_CURVE('',#140,#140,#120,.T.);
#161=EDGE_CURVE('',#141,#141,#121,.T.);
#162=EDGE_CURVE('',#142,#142,#122,.T.);
#163=EDGE_CURVE('',#143,#143,#123,.T.);
#164=EDGE_CURVE('',#144,#144,#124,.T.);
#165=EDGE_CURVE('',#145,#145,#125,.T.);
#166=EDGE_CURVE('',#146,#146,#126,.T.);
#167=EDGE_CURVE('',#147,#147,#127,.T.);
#168=EDGE_CURVE('',#148,#148,#128,.T.);
#169=EDGE_CURVE('',#149,#149,#129,.T.);
#170=EDGE_CURVE('',#150,#150,#130,.T.);
#171=EDGE_CURVE('',#151,#151,#131,.T.);
#172=EDGE_CURVE('',#152,#152,#132,.T.);
#173=EDGE_CURVE('',#153,#153,#133,.T.);
#174=EDGE_CURVE('',#154,#154,#134,.T.);
#175=EDGE_CURVE('',#155,#155,#135,.T.);
#176=EDGE_CURVE('',#156,#156,#136,.T.);
#177=ORIENTED_EDGE('',*,*,#157,.F.);
#178=ORIENTED_EDGE('',*,*,#158,.T.);
#179=ORIENTED_EDGE('',*,*,#158,.F.);
#180=ORIENTED_EDGE('',*,*,#159,.F.);
#181=ORIENTED_EDGE('',*,*,#160,.T.);
#182=ORIENTED_EDGE('',*,*,#158,.F.);
#183=ORIENTED_EDGE('',*,*,#161,.T.);
#184=ORIENTED_EDGE('',*,*,#159,.T.);
#185=ORIENTED_EDGE('',*,*,#162,.F.);
#186=ORIENTED_EDGE('',*,*,#163,.F.);
#187=ORIENTED_EDGE('',*,*,#162,.T.);
#188=ORIENTED_EDGE('',*,*,#164,.F.);
#189=ORIENTED_EDGE('',*,*,#165,.F.);
#190=ORIENTED_EDGE('',*,*,#160,.F.);
#191=ORIENTED_EDGE('',*,*,#164,.T.);
#192=ORIENTED_EDGE('',*,*,#158,.T.);
#193=ORIENTED_EDGE('',*,*,#161,.F.);
#194=ORIENTED_EDGE('',*,*,#157,.T.);
#195=ORIENTED_EDGE('',*,*,#166,.F.);
#196=ORIENTED_EDGE('',*,*,#167,.F.);
#197=ORIENTED_EDGE('',*,*,#166,.T.);
#198=ORIENTED_EDGE('',*,*,#168,.F.);
#199=ORIENTED_EDGE('',*,*,#167,.T.);
#200=ORIENTED_EDGE('',*,*,#168,.T.);
#201=ORIENTED_EDGE('',*,*,#169,.F.);
#202=ORIENTED_EDGE('',*,*,#165,.T.);
#203=ORIENTED_EDGE('',*,*,#170,.F.);
#204=ORIENTED_EDGE('',*,*,#163,.T.);
#205=ORIENTED_EDGE('',*,*,#171,.T.);
#206=ORIENTED_EDGE('',*,*,#172,.T.);
#207=ORIENTED_EDGE('',*,*,#173,.T.);
#208=ORIENTED_EDGE('',*,*,#171,.F.);
#209=ORIENTED_EDGE('',*,*,#174,.F.);
#210=ORIENTED_EDGE('',*,*,#172,.F.);
#211=ORIENTED_EDGE('',*,*,#175,.T.);
#212=ORIENTED_EDGE('',*,*,#170,.T.);
#213=ORIENTED_EDGE('',*,*,#176,.F.);
#214=ORIENTED_EDGE('',*,*,#175,.F.);
#215=ORIENTED_EDGE('',*,*,#173,.F.);
#216=ORIENTED_EDGE('',*,*,#169,.T.);
#217=ORIENTED_EDGE('',*,*,#176,.T.);
#218=ORIENTED_EDGE('',*,*,#174,.T.);
#219=TOROIDAL_SURFACE('',#269,0.1515,0.032);
#220=TOROIDAL_SURFACE('',#272,0.1515,0.032);
#221=TOROIDAL_SURFACE('',#298,0.4035,0.125);
#222=STYLED_ITEM('',(#485),#245);
#223=STYLED_ITEM('',(#485),#246);
#224=STYLED_ITEM('',(#484),#247);
#225=STYLED_ITEM('',(#484),#248);
#226=STYLED_ITEM('',(#488),#249);
#227=STYLED_ITEM('',(#488),#250);
#228=STYLED_ITEM('',(#484),#251);
#229=STYLED_ITEM('',(#484),#252);
#230=STYLED_ITEM('',(#484),#253);
#231=STYLED_ITEM('',(#484),#254);
#232=STYLED_ITEM('',(#484),#255);
#233=STYLED_ITEM('',(#484),#256);
#234=STYLED_ITEM('',(#484),#257);
#235=STYLED_ITEM('',(#486),#258);
#236=STYLED_ITEM('',(#486),#259);
#237=STYLED_ITEM('',(#486),#260);
#238=STYLED_ITEM('',(#486),#261);
#239=STYLED_ITEM('',(#486),#262);
#240=STYLED_ITEM('',(#486),#263);
#241=STYLED_ITEM('',(#487),#264);
#242=STYLED_ITEM('',(#486),#265);
#243=STYLED_ITEM('',(#486),#266);
#244=STYLED_ITEM('',(#484),#13);
#245=ADVANCED_FACE('',(#53,#33),#219,.T.);
#246=ADVANCED_FACE('',(#54,#34),#220,.T.);
#247=ADVANCED_FACE('',(#55,#35),#23,.F.);
#248=ADVANCED_FACE('',(#56,#36),#24,.T.);
#249=ADVANCED_FACE('',(#57,#37),#18,.T.);
#250=ADVANCED_FACE('',(#58),#14,.T.);
#251=ADVANCED_FACE('',(#59,#38),#19,.T.);
#252=ADVANCED_FACE('',(#60,#39),#25,.T.);
#253=ADVANCED_FACE('',(#61,#40),#26,.F.);
#254=ADVANCED_FACE('',(#62,#41),#27,.T.);
#255=ADVANCED_FACE('',(#63,#42),#28,.T.);
#256=ADVANCED_FACE('',(#64,#43),#29,.T.);
#257=ADVANCED_FACE('',(#65),#15,.T.);
#258=ADVANCED_FACE('',(#66,#44),#16,.T.);
#259=ADVANCED_FACE('',(#67,#45),#17,.T.);
#260=ADVANCED_FACE('',(#68,#46),#221,.F.);
#261=ADVANCED_FACE('',(#69,#47),#20,.T.);
#262=ADVANCED_FACE('',(#70,#48),#30,.T.);
#263=ADVANCED_FACE('',(#71,#49),#31,.T.);
#264=ADVANCED_FACE('',(#72,#50),#21,.T.);
#265=ADVANCED_FACE('',(#73,#51),#32,.T.);
#266=ADVANCED_FACE('',(#74,#52),#22,.T.);
#267=CLOSED_SHELL('',(#245,#246,#247,#248,#249,#250,#251,#252,#253,#254,
#255,#256,#257,#258,#259,#260,#261,#262,#263,#264,#265,#266));
#268=AXIS2_PLACEMENT_3D('placement',#397,#311,#312);
#269=AXIS2_PLACEMENT_3D('',#398,#313,#314);
#270=AXIS2_PLACEMENT_3D('',#400,#315,#316);
#271=AXIS2_PLACEMENT_3D('',#402,#317,#318);
#272=AXIS2_PLACEMENT_3D('',#403,#319,#320);
#273=AXIS2_PLACEMENT_3D('',#405,#321,#322);
#274=AXIS2_PLACEMENT_3D('',#406,#323,#324);
#275=AXIS2_PLACEMENT_3D('',#408,#325,#326);
#276=AXIS2_PLACEMENT_3D('',#409,#327,#328);
#277=AXIS2_PLACEMENT_3D('',#411,#329,#330);
#278=AXIS2_PLACEMENT_3D('',#412,#331,#332);
#279=AXIS2_PLACEMENT_3D('',#414,#333,#334);
#280=AXIS2_PLACEMENT_3D('',#416,#335,#336);
#281=AXIS2_PLACEMENT_3D('',#417,#337,#338);
#282=AXIS2_PLACEMENT_3D('',#418,#339,#340);
#283=AXIS2_PLACEMENT_3D('',#420,#341,#342);
#284=AXIS2_PLACEMENT_3D('',#422,#343,#344);
#285=AXIS2_PLACEMENT_3D('',#423,#345,#346);
#286=AXIS2_PLACEMENT_3D('',#424,#347,#348);
#287=AXIS2_PLACEMENT_3D('',#425,#349,#350);
#288=AXIS2_PLACEMENT_3D('',#427,#351,#352);
#289=AXIS2_PLACEMENT_3D('',#428,#353,#354);
#290=AXIS2_PLACEMENT_3D('',#430,#355,#356);
#291=AXIS2_PLACEMENT_3D('',#431,#357,#358);
#292=AXIS2_PLACEMENT_3D('',#433,#359,#360);
#293=AXIS2_PLACEMENT_3D('',#434,#361,#362);
#294=AXIS2_PLACEMENT_3D('',#435,#363,#364);
#295=AXIS2_PLACEMENT_3D('',#437,#365,#366);
#296=AXIS2_PLACEMENT_3D('',#438,#367,#368);
#297=AXIS2_PLACEMENT_3D('',#440,#369,#370);
#298=AXIS2_PLACEMENT_3D('',#441,#371,#372);
#299=AXIS2_PLACEMENT_3D('',#443,#373,#374);
#300=AXIS2_PLACEMENT_3D('',#445,#375,#376);
#301=AXIS2_PLACEMENT_3D('',#446,#377,#378);
#302=AXIS2_PLACEMENT_3D('',#448,#379,#380);
#303=AXIS2_PLACEMENT_3D('',#449,#381,#382);
#304=AXIS2_PLACEMENT_3D('',#451,#383,#384);
#305=AXIS2_PLACEMENT_3D('',#452,#385,#386);
#306=AXIS2_PLACEMENT_3D('',#454,#387,#388);
#307=AXIS2_PLACEMENT_3D('',#455,#389,#390);
#308=AXIS2_PLACEMENT_3D('',#457,#391,#392);
#309=AXIS2_PLACEMENT_3D('',#458,#393,#394);
#310=AXIS2_PLACEMENT_3D('',#459,#395,#396);
#311=DIRECTION('axis',(0.,0.,1.));
#312=DIRECTION('refdir',(1.,0.,0.));
#313=DIRECTION('center_axis',(1.,1.935580597388E-16,1.09322798380985E-15));
#314=DIRECTION('ref_axis',(6.05026171457851E-16,0.452529441342555,-0.891749462976118));
#315=DIRECTION('center_axis',(-1.,-9.57915449891955E-16,-1.21569266372459E-15));
#316=DIRECTION('ref_axis',(-9.57915449891955E-16,1.,-1.81717618637471E-30));
#317=DIRECTION('center_axis',(-1.,-9.57915449891955E-16,-1.21569266372459E-15));
#318=DIRECTION('ref_axis',(-9.57915449891955E-16,1.,-1.81717618637471E-30));
#319=DIRECTION('center_axis',(1.,1.935580597388E-16,1.09322798380985E-15));
#320=DIRECTION('ref_axis',(6.05026171457851E-16,0.452529441342555,-0.891749462976118));
#321=DIRECTION('center_axis',(1.,9.57915449891955E-16,1.21569266372459E-15));
#322=DIRECTION('ref_axis',(-9.57915449891955E-16,1.,-1.81717618637471E-30));
#323=DIRECTION('center_axis',(-1.,-9.57915449891955E-16,-1.21569266372459E-15));
#324=DIRECTION('ref_axis',(-9.57915449891955E-16,1.,-1.81717618637471E-30));
#325=DIRECTION('center_axis',(-1.,-9.57915449891955E-16,-1.21569266372459E-15));
#326=DIRECTION('ref_axis',(-9.57915449891955E-16,1.,-1.81717618637471E-30));
#327=DIRECTION('center_axis',(1.,9.57915449891955E-16,1.21569266372459E-15));
#328=DIRECTION('ref_axis',(-9.57915449891955E-16,1.,-1.81717618637471E-30));
#329=DIRECTION('center_axis',(-1.,-9.57915449891955E-16,-1.21569266372459E-15));
#330=DIRECTION('ref_axis',(-9.57915449891955E-16,1.,-1.81717618637471E-30));
#331=DIRECTION('center_axis',(1.,7.22341815723712E-34,0.));
#332=DIRECTION('ref_axis',(0.,1.,0.));
#333=DIRECTION('center_axis',(1.,7.22341815723712E-34,0.));
#334=DIRECTION('ref_axis',(0.,1.,0.));
#335=DIRECTION('center_axis',(-1.,-3.8537937404182E-16,4.93038065763137E-31));
#336=DIRECTION('ref_axis',(0.,1.,0.));
#337=DIRECTION('center_axis',(1.,7.22341815723712E-34,0.));
#338=DIRECTION('ref_axis',(0.,0.,-1.));
#339=DIRECTION('center_axis',(-1.,-9.57915449891955E-16,-1.21569266372459E-15));
#340=DIRECTION('ref_axis',(-9.57915449891955E-16,1.,-1.81717618637471E-30));
#341=DIRECTION('center_axis',(-1.,-9.57915449891955E-16,-1.21569266372459E-15));
#342=DIRECTION('ref_axis',(-9.57915449891955E-16,1.,-1.81717618637471E-30));
#343=DIRECTION('center_axis',(1.,3.8537937404182E-16,-4.93038065763137E-31));
#344=DIRECTION('ref_axis',(-9.57915449891955E-16,1.,-1.81717618637471E-30));
#345=DIRECTION('center_axis',(1.,9.57915449891955E-16,1.21569266372459E-15));
#346=DIRECTION('ref_axis',(-9.57915449891955E-16,1.,-1.81717618637471E-30));
#347=DIRECTION('center_axis',(-1.,-9.57915449891955E-16,-1.21569266372459E-15));
#348=DIRECTION('ref_axis',(-9.57915449891955E-16,1.,-1.81717618637471E-30));
#349=DIRECTION('center_axis',(1.,9.57915449891955E-16,1.21569266372459E-15));
#350=DIRECTION('ref_axis',(-9.57915449891955E-16,1.,-1.81717618637471E-30));
#351=DIRECTION('center_axis',(-1.,-9.57915449891955E-16,-1.21569266372459E-15));
#352=DIRECTION('ref_axis',(-9.57915449891955E-16,1.,-1.81717618637471E-30));
#353=DIRECTION('center_axis',(-1.,-9.57915449891955E-16,-1.21569266372459E-15));
#354=DIRECTION('ref_axis',(-9.57915449891955E-16,1.,-1.81717618637471E-30));
#355=DIRECTION('center_axis',(-1.,-9.57915449891955E-16,-1.21569266372459E-15));
#356=DIRECTION('ref_axis',(-9.57915449891955E-16,1.,-1.81717618637471E-30));
#357=DIRECTION('center_axis',(1.,9.57915449891955E-16,1.21569266372459E-15));
#358=DIRECTION('ref_axis',(-9.57915449891955E-16,1.,-1.81717618637471E-30));
#359=DIRECTION('center_axis',(-1.,-9.57915449891955E-16,-1.21569266372459E-15));
#360=DIRECTION('ref_axis',(-9.57915449891955E-16,1.,-1.81717618637471E-30));
#361=DIRECTION('center_axis',(-1.,-9.57915449891955E-16,-1.21569266372459E-15));
#362=DIRECTION('ref_axis',(-1.12798659301916E-15,0.,1.));
#363=DIRECTION('center_axis',(-1.,-3.8537937404182E-16,4.93038065763137E-31));
#364=DIRECTION('ref_axis',(0.,0.,-1.));
#365=DIRECTION('center_axis',(1.,3.8537937404182E-16,-4.93038065763137E-31));
#366=DIRECTION('ref_axis',(3.8537937404182E-16,-1.,6.16297582203872E-33));
#367=DIRECTION('center_axis',(1.,3.8537937404182E-16,-4.93038065763137E-31));
#368=DIRECTION('ref_axis',(0.,0.,1.));
#369=DIRECTION('center_axis',(-1.,-3.8537937404182E-16,4.93038065763137E-31));
#370=DIRECTION('ref_axis',(-3.8537937404182E-16,1.,-6.16297582203872E-33));
#371=DIRECTION('center_axis',(1.,3.8537937404182E-16,-4.93038065763137E-31));
#372=DIRECTION('ref_axis',(0.,0.,1.));
#373=DIRECTION('center_axis',(1.,3.8537937404182E-16,-4.93038065763137E-31));
#374=DIRECTION('ref_axis',(-3.8537937404182E-16,1.,-1.22464679914735E-16));
#375=DIRECTION('center_axis',(-1.,-3.8537937404182E-16,4.93038065763137E-31));
#376=DIRECTION('ref_axis',(-3.8537937404182E-16,1.,-6.16297582203872E-33));
#377=DIRECTION('center_axis',(1.,3.8537937404182E-16,-4.93038065763137E-31));
#378=DIRECTION('ref_axis',(3.8537937404182E-16,-1.,6.16297582203872E-33));
#379=DIRECTION('center_axis',(1.,3.8537937404182E-16,-4.93038065763137E-31));
#380=DIRECTION('ref_axis',(3.8537937404182E-16,-1.,6.16297582203872E-33));
#381=DIRECTION('center_axis',(1.,3.8537937404182E-16,-4.93038065763137E-31));
#382=DIRECTION('ref_axis',(3.8537937404182E-16,-1.,6.16297582203872E-33));
#383=DIRECTION('center_axis',(1.,3.8537937404182E-16,-4.93038065763137E-31));
#384=DIRECTION('ref_axis',(3.8537937404182E-16,-1.,6.16297582203872E-33));
#385=DIRECTION('center_axis',(-1.,-3.8537937404182E-16,4.93038065763137E-31));
#386=DIRECTION('ref_axis',(-3.8537937404182E-16,1.,-6.16297582203872E-33));
#387=DIRECTION('center_axis',(1.,3.8537937404182E-16,-4.93038065763137E-31));
#388=DIRECTION('ref_axis',(-3.8537937404182E-16,1.,-6.16297582203872E-33));
#389=DIRECTION('center_axis',(1.,3.8537937404182E-16,-4.93038065763137E-31));
#390=DIRECTION('ref_axis',(3.8537937404182E-16,-1.,6.16297582203872E-33));
#391=DIRECTION('center_axis',(-1.,-3.8537937404182E-16,4.93038065763137E-31));
#392=DIRECTION('ref_axis',(3.8537937404182E-16,-1.,6.16297582203872E-33));
#393=DIRECTION('center_axis',(1.,3.8537937404182E-16,-4.93038065763137E-31));
#394=DIRECTION('ref_axis',(3.8537937404182E-16,-1.,6.16297582203872E-33));
#395=DIRECTION('center_axis',(1.,3.8537937404182E-16,-4.93038065763137E-31));
#396=DIRECTION('ref_axis',(3.8537937404182E-16,-1.,6.16297582203872E-33));
#397=CARTESIAN_POINT('',(0.,0.,0.));
#398=CARTESIAN_POINT('Origin',(-0.893117706115769,-1.20995996572038E-15,
-1.53556292874557E-15));
#399=CARTESIAN_POINT('',(-0.895160339240668,-0.119565259513862,-1.5234036216149E-15));
#400=CARTESIAN_POINT('Origin',(-0.895160339240669,-1.21191663554918E-15,
-1.53804614285019E-15));
#401=CARTESIAN_POINT('',(-0.868249035349147,-0.171638252513595,-1.4843106444828E-15));
#402=CARTESIAN_POINT('Origin',(-0.868249035349147,-1.18613788177476E-15,
-1.50533026813801E-15));
#403=CARTESIAN_POINT('Origin',(-0.893117706115769,-1.20995996572038E-15,
-1.53556292874557E-15));
#404=CARTESIAN_POINT('',(-0.861456129022477,-0.146858390800001,-1.51505714757342E-15));
#405=CARTESIAN_POINT('Origin',(-0.861456129022477,-1.17963085185477E-15,
-1.4970721817513E-15));
#406=CARTESIAN_POINT('Origin',(-0.867913932359097,-1.18581688144328E-15,
-1.50492288589141E-15));
#407=CARTESIAN_POINT('',(-0.882388301353244,0.189098791897544,-1.52251927008964E-15));
#408=CARTESIAN_POINT('Origin',(-0.882388301353244,-1.19968210313021E-15,
-1.52251927008964E-15));
#409=CARTESIAN_POINT('Origin',(-0.87947395307376,-1.19689040388693E-15,
-1.51897631826673E-15));
#410=CARTESIAN_POINT('',(-0.853439563364951,0.153350077670523,-1.48732650169318E-15));
#411=CARTESIAN_POINT('Origin',(-0.853439563364951,-1.17195165975635E-15,
-1.48732650169318E-15));
#412=CARTESIAN_POINT('Origin',(0.5475,3.95482144108732E-34,0.));
#413=CARTESIAN_POINT('',(0.61,0.3,0.));
#414=CARTESIAN_POINT('Origin',(0.61,4.40628507591464E-34,0.));
#415=CARTESIAN_POINT('',(0.560000000000012,-0.3,3.67394039744206E-17));
#416=CARTESIAN_POINT('Origin',(0.560000000000012,4.04511416805287E-34,0.));
#417=CARTESIAN_POINT('Origin',(0.61,0.15,0.));
#418=CARTESIAN_POINT('Origin',(-0.433228318075827,-7.69424815675564E-16,
-9.76478773580622E-16));
#419=CARTESIAN_POINT('',(-0.866456636151655,0.201999999999999,-1.50315126158315E-15));
#420=CARTESIAN_POINT('Origin',(-0.866456636151655,-1.18442091489111E-15,
-1.50315126158315E-15));
#421=CARTESIAN_POINT('',(-0.769999999999988,-0.202000000000001,-1.41062750198879E-15));
#422=CARTESIAN_POINT('Origin',(-0.769999999999988,-1.09202361287682E-15,
-1.38588963664601E-15));
#423=CARTESIAN_POINT('Origin',(-0.874422468752449,-1.19205150901066E-15,
-1.51283526583639E-15));
#424=CARTESIAN_POINT('Origin',(-0.867913932359097,-1.18581688144328E-15,
-1.50492288589141E-15));
#425=CARTESIAN_POINT('Origin',(-0.87947395307376,-1.19689040388693E-15,
-1.51897631826673E-15));
#426=CARTESIAN_POINT('',(-0.905508342782568,0.111185611470184,-1.55062613484027E-15));
#427=CARTESIAN_POINT('Origin',(-0.905508342782568,-1.22182914801751E-15,
-1.55062613484027E-15));
#428=CARTESIAN_POINT('Origin',(-0.919982711776714,-1.23569436970444E-15,
-1.5682225190385E-15));
#429=CARTESIAN_POINT('',(-0.934457080770861,0.146934325697205,-1.58581890323673E-15));
#430=CARTESIAN_POINT('Origin',(-0.934457080770861,-1.24955959139137E-15,
-1.58581890323673E-15));
#431=CARTESIAN_POINT('Origin',(-0.94222854038543,-1.25700399262437E-15,
-1.59526660967659E-15));
#432=CARTESIAN_POINT('',(-0.95,0.134347917876208,-1.60471431611646E-15));
#433=CARTESIAN_POINT('Origin',(-0.95,-1.26444839385738E-15,-1.60471431611645E-15));
#434=CARTESIAN_POINT('Origin',(-0.95,0.0954239589381033,-1.60471431611646E-15));
#435=CARTESIAN_POINT('Origin',(-0.769999999999988,-0.11975,7.38016354689217E-34));
#436=CARTESIAN_POINT('',(-0.769999999999988,-0.2395,1.47603270937837E-33));
#437=CARTESIAN_POINT('Origin',(-0.769999999999988,3.82656917438709E-32,
6.89615385986616E-47));
#438=CARTESIAN_POINT('Origin',(0.560000000000012,-0.2422,-6.54247954720875E-31));
#439=CARTESIAN_POINT('',(0.560000000000012,-0.4444,5.44233037541077E-17));
#440=CARTESIAN_POINT('Origin',(0.560000000000012,5.1255456747562E-16,-6.55740627464972E-31));
#441=CARTESIAN_POINT('Origin',(-0.402168783648691,1.41754563910504E-16,
-1.81354791437145E-31));
#442=CARTESIAN_POINT('',(-0.402168783648691,-0.2785,-1.79638402670707E-31));
#443=CARTESIAN_POINT('Origin',(-0.402168783648691,1.41754563910504E-16,
-1.81354791437145E-31));
#444=CARTESIAN_POINT('',(-0.293915608175636,-0.341,8.35209117018493E-17));
#445=CARTESIAN_POINT('Origin',(-0.293915608175636,1.83473104912349E-16,
4.17604558509245E-17));
#446=CARTESIAN_POINT('Origin',(-0.53874166975079,8.91221905533922E-17,-1.14019159837677E-31));
#447=CARTESIAN_POINT('',(-0.747483339501592,-0.2785,-9.38518197313619E-33));
#448=CARTESIAN_POINT('Origin',(-0.747483339501593,8.67745652838377E-18,
-1.1101570739574E-32));
#449=CARTESIAN_POINT('Origin',(-0.270561789786916,1.9247318482448E-16,-2.46242049131656E-31));
#450=CARTESIAN_POINT('',(-0.211123579573844,-0.4844,-2.72562003839336E-31));
#451=CARTESIAN_POINT('Origin',(-0.211123579573844,2.1537944507056E-16,-2.75547349327532E-31));
#452=CARTESIAN_POINT('Origin',(0.540000000000012,5.04846979994784E-16,-6.4587986614971E-31));
#453=CARTESIAN_POINT('',(0.520000000000012,-0.4844,-5.93218909506984E-17));
#454=CARTESIAN_POINT('Origin',(0.520000000000012,4.97139392513947E-16,-6.36019104834447E-31));
#455=CARTESIAN_POINT('Origin',(0.174438210213084,3.6396700627309E-16,-4.65643988396252E-31));
#456=CARTESIAN_POINT('',(0.185000000000012,0.4844,-5.93218909506983E-17));
#457=CARTESIAN_POINT('Origin',(0.185000000000012,3.68037302209938E-16,-4.70851352803796E-31));
#458=CARTESIAN_POINT('Origin',(-0.75874166975079,4.33872826419187E-18,-5.5507853697869E-33));
#459=CARTESIAN_POINT('Origin',(0.174438210213084,3.6396700627309E-16,-4.65643988396252E-31));
#460=UNCERTAINTY_MEASURE_WITH_UNIT(LENGTH_MEASURE(0.000393700787401575),
#464,'DISTANCE_ACCURACY_VALUE',
'Maximum model space distance between geometric entities at asserted c
onnectivities');
#461=UNCERTAINTY_MEASURE_WITH_UNIT(LENGTH_MEASURE(1.E-6),#465,
'DISTANCE_ACCURACY_VALUE',
'Maximum model space distance between geometric entities at asserted c
onnectivities');
#462=(
GEOMETRIC_REPRESENTATION_CONTEXT(3)
GLOBAL_UNCERTAINTY_ASSIGNED_CONTEXT((#460))
GLOBAL_UNIT_ASSIGNED_CONTEXT((#464,#470,#467))
REPRESENTATION_CONTEXT('','3D')
);
#463=(
GEOMETRIC_REPRESENTATION_CONTEXT(3)
GLOBAL_UNCERTAINTY_ASSIGNED_CONTEXT((#461))
GLOBAL_UNIT_ASSIGNED_CONTEXT((#465,#470,#467))
REPRESENTATION_CONTEXT('','3D')
);
#464=(
CONVERSION_BASED_UNIT('__CONSTANT UNIT inch',#466)
LENGTH_UNIT()
NAMED_UNIT(#469)
);
#465=(
LENGTH_UNIT()
NAMED_UNIT(*)
SI_UNIT(.MILLI.,.METRE.)
);
#466=LENGTH_MEASURE_WITH_UNIT(LENGTH_MEASURE(25.4),#465);
#467=(
NAMED_UNIT(*)
SI_UNIT($,.STERADIAN.)
SOLID_ANGLE_UNIT()
);
#468=DIMENSIONAL_EXPONENTS(0.,0.,0.,0.,0.,0.,0.);
#469=DIMENSIONAL_EXPONENTS(1.,0.,0.,0.,0.,0.,0.);
#470=(
CONVERSION_BASED_UNIT('degree',#472)
NAMED_UNIT(#468)
PLANE_ANGLE_UNIT()
);
#471=(
NAMED_UNIT(*)
PLANE_ANGLE_UNIT()
SI_UNIT($,.RADIAN.)
);
#472=PLANE_ANGLE_MEASURE_WITH_UNIT(PLANE_ANGLE_MEASURE(0.01745329252),#471);
#473=SHAPE_DEFINITION_REPRESENTATION(#474,#475);
#474=PRODUCT_DEFINITION_SHAPE('',$,#477);
#475=SHAPE_REPRESENTATION('',(#268),#462);
#476=PRODUCT_DEFINITION_CONTEXT('part definition',#481,'design');
#477=PRODUCT_DEFINITION('MITH-060P','MITH-060P',#478,#476);
#478=PRODUCT_DEFINITION_FORMATION('',$,#483);
#479=PRODUCT_RELATED_PRODUCT_CATEGORY('MITH-060P','MITH-060P',(#483));
#480=APPLICATION_PROTOCOL_DEFINITION('international standard',
'automotive_design',2009,#481);
#481=APPLICATION_CONTEXT(
'Core Data for Automotive Mechanical Design Process');
#482=PRODUCT_CONTEXT('part definition',#481,'mechanical');
#483=PRODUCT('MITH-060P','MITH-060P',$,(#482));
#484=PRESENTATION_STYLE_ASSIGNMENT((#489));
#485=PRESENTATION_STYLE_ASSIGNMENT((#490));
#486=PRESENTATION_STYLE_ASSIGNMENT((#491));
#487=PRESENTATION_STYLE_ASSIGNMENT((#492));
#488=PRESENTATION_STYLE_ASSIGNMENT((#493));
#489=SURFACE_STYLE_USAGE(.BOTH.,#494);
#490=SURFACE_STYLE_USAGE(.BOTH.,#495);
#491=SURFACE_STYLE_USAGE(.BOTH.,#496);
#492=SURFACE_STYLE_USAGE(.BOTH.,#497);
#493=SURFACE_STYLE_USAGE(.BOTH.,#498);
#494=SURFACE_SIDE_STYLE('',(#499));
#495=SURFACE_SIDE_STYLE('',(#500));
#496=SURFACE_SIDE_STYLE('',(#501));
#497=SURFACE_SIDE_STYLE('',(#502));
#498=SURFACE_SIDE_STYLE('',(#503));
#499=SURFACE_STYLE_FILL_AREA(#504);
#500=SURFACE_STYLE_FILL_AREA(#505);
#501=SURFACE_STYLE_FILL_AREA(#506);
#502=SURFACE_STYLE_FILL_AREA(#507);
#503=SURFACE_STYLE_FILL_AREA(#508);
#504=FILL_AREA_STYLE('',(#509));
#505=FILL_AREA_STYLE('',(#510));
#506=FILL_AREA_STYLE('',(#511));
#507=FILL_AREA_STYLE('',(#512));
#508=FILL_AREA_STYLE('',(#513));
#509=FILL_AREA_STYLE_COLOUR('',#514);
#510=FILL_AREA_STYLE_COLOUR('',#515);
#511=FILL_AREA_STYLE_COLOUR('',#516);
#512=FILL_AREA_STYLE_COLOUR('',#517);
#513=FILL_AREA_STYLE_COLOUR('',#518);
#514=COLOUR_RGB('',0.63921568627451,0.63921568627451,0.686274509803922);
#515=COLOUR_RGB('',0.250980392156863,0.250980392156863,0.250980392156863);
#516=COLOUR_RGB('',0.580392156862745,0.650980392156863,0.72156862745098);
#517=COLOUR_RGB('',0.580392156862745,0.580392156862745,0.592156862745098);
#518=COLOUR_RGB('',0.956862745098039,0.956862745098039,0.956862745098039);
ENDSEC;
END-ISO-10303-21;
