ISO-10303-21;
HEADER;
/* Generated by software containing ST-Developer
 * from STEP Tools, Inc. (www.steptools.com) 
 */

FILE_DESCRIPTION(
/* description */ (''),
/* implementation_level */ '2;1');

FILE_NAME(
/* name */ 'S:\\Marketing\\CAD Models\\MIT\\MITH-10KP.stp',
/* time_stamp */ '2016-05-05T13:54:05-05:00',
/* author */ ('scottg'),
/* organization */ ('FasTest,Inc.'),
/* preprocessor_version */ 'ST-DEVELOPER v16.1',
/* originating_system */ 'Autodesk Inventor 2016',
/* authorisation */ '');

FILE_SCHEMA (('AUTOMOTIVE_DESIGN { 1 0 10303 214 3 1 1 }'));
ENDSEC;

DATA;
#10=MECHANICAL_DESIGN_GEOMETRIC_PRESENTATION_REPRESENTATION('',(#181,#184,
#177,#185,#179,#182,#180,#188,#178,#189,#190,#187,#192,#186,#183,#176,#175,
#191),#366);
#11=SHAPE_REPRESENTATION_RELATIONSHIP('SRR','None',#378,#12);
#12=ADVANCED_BREP_SHAPE_REPRESENTATION('',(#13),#365);
#13=MANIFOLD_SOLID_BREP('Solid1',#210);
#14=CONICAL_SURFACE('',#219,0.5475,44.9999999999999);
#15=CONICAL_SURFACE('',#237,0.67825,60.0000000000001);
#16=CONICAL_SURFACE('',#239,0.84,44.9999999999998);
#17=CONICAL_SURFACE('',#243,0.47325,60.);
#18=CYLINDRICAL_SURFACE('',#216,0.5625);
#19=CYLINDRICAL_SURFACE('',#222,0.375);
#20=CYLINDRICAL_SURFACE('',#235,0.4965);
#21=CYLINDRICAL_SURFACE('',#241,0.86);
#22=CYLINDRICAL_SURFACE('',#244,0.86);
#23=PLANE('',#215);
#24=PLANE('',#221);
#25=PLANE('',#227);
#26=PLANE('',#228);
#27=PLANE('',#230);
#28=FACE_BOUND('',#61,.T.);
#29=FACE_BOUND('',#64,.T.);
#30=FACE_BOUND('',#66,.T.);
#31=FACE_BOUND('',#69,.T.);
#32=FACE_BOUND('',#71,.T.);
#33=FACE_BOUND('',#73,.T.);
#34=FACE_BOUND('',#75,.T.);
#35=FACE_BOUND('',#77,.T.);
#36=FACE_BOUND('',#79,.T.);
#37=FACE_BOUND('',#81,.T.);
#38=FACE_BOUND('',#83,.T.);
#39=FACE_BOUND('',#85,.T.);
#40=FACE_BOUND('',#87,.T.);
#41=FACE_BOUND('',#89,.T.);
#42=FACE_BOUND('',#91,.T.);
#43=FACE_OUTER_BOUND('',#60,.T.);
#44=FACE_OUTER_BOUND('',#62,.T.);
#45=FACE_OUTER_BOUND('',#63,.T.);
#46=FACE_OUTER_BOUND('',#65,.T.);
#47=FACE_OUTER_BOUND('',#67,.T.);
#48=FACE_OUTER_BOUND('',#68,.T.);
#49=FACE_OUTER_BOUND('',#70,.T.);
#50=FACE_OUTER_BOUND('',#72,.T.);
#51=FACE_OUTER_BOUND('',#74,.T.);
#52=FACE_OUTER_BOUND('',#76,.T.);
#53=FACE_OUTER_BOUND('',#78,.T.);
#54=FACE_OUTER_BOUND('',#80,.T.);
#55=FACE_OUTER_BOUND('',#82,.T.);
#56=FACE_OUTER_BOUND('',#84,.T.);
#57=FACE_OUTER_BOUND('',#86,.T.);
#58=FACE_OUTER_BOUND('',#88,.T.);
#59=FACE_OUTER_BOUND('',#90,.T.);
#60=EDGE_LOOP('',(#140));
#61=EDGE_LOOP('',(#141));
#62=EDGE_LOOP('',(#142));
#63=EDGE_LOOP('',(#143));
#64=EDGE_LOOP('',(#144));
#65=EDGE_LOOP('',(#145));
#66=EDGE_LOOP('',(#146));
#67=EDGE_LOOP('',(#147));
#68=EDGE_LOOP('',(#148));
#69=EDGE_LOOP('',(#149));
#70=EDGE_LOOP('',(#150));
#71=EDGE_LOOP('',(#151));
#72=EDGE_LOOP('',(#152));
#73=EDGE_LOOP('',(#153));
#74=EDGE_LOOP('',(#154));
#75=EDGE_LOOP('',(#155));
#76=EDGE_LOOP('',(#156));
#77=EDGE_LOOP('',(#157));
#78=EDGE_LOOP('',(#158));
#79=EDGE_LOOP('',(#159));
#80=EDGE_LOOP('',(#160));
#81=EDGE_LOOP('',(#161));
#82=EDGE_LOOP('',(#162));
#83=EDGE_LOOP('',(#163));
#84=EDGE_LOOP('',(#164));
#85=EDGE_LOOP('',(#165));
#86=EDGE_LOOP('',(#166));
#87=EDGE_LOOP('',(#167));
#88=EDGE_LOOP('',(#168));
#89=EDGE_LOOP('',(#169));
#90=EDGE_LOOP('',(#170));
#91=EDGE_LOOP('',(#171));
#92=CIRCLE('',#213,0.310628764832542);
#93=CIRCLE('',#214,0.248371235167458);
#94=CIRCLE('',#217,0.5625);
#95=CIRCLE('',#218,0.5625);
#96=CIRCLE('',#220,0.5325);
#97=CIRCLE('',#223,0.375);
#98=CIRCLE('',#224,0.375);
#99=CIRCLE('',#226,0.355);
#100=CIRCLE('',#229,0.45);
#101=CIRCLE('',#231,0.82);
#102=CIRCLE('',#233,0.4965);
#103=CIRCLE('',#234,0.559);
#104=CIRCLE('',#236,0.4965);
#105=CIRCLE('',#238,0.86);
#106=CIRCLE('',#240,0.86);
#107=CIRCLE('',#242,0.86);
#108=VERTEX_POINT('',#315);
#109=VERTEX_POINT('',#317);
#110=VERTEX_POINT('',#321);
#111=VERTEX_POINT('',#323);
#112=VERTEX_POINT('',#326);
#113=VERTEX_POINT('',#330);
#114=VERTEX_POINT('',#332);
#115=VERTEX_POINT('',#335);
#116=VERTEX_POINT('',#339);
#117=VERTEX_POINT('',#342);
#118=VERTEX_POINT('',#345);
#119=VERTEX_POINT('',#347);
#120=VERTEX_POINT('',#350);
#121=VERTEX_POINT('',#353);
#122=VERTEX_POINT('',#356);
#123=VERTEX_POINT('',#359);
#124=EDGE_CURVE('',#108,#108,#92,.T.);
#125=EDGE_CURVE('',#109,#109,#93,.T.);
#126=EDGE_CURVE('',#110,#110,#94,.T.);
#127=EDGE_CURVE('',#111,#111,#95,.T.);
#128=EDGE_CURVE('',#112,#112,#96,.T.);
#129=EDGE_CURVE('',#113,#113,#97,.T.);
#130=EDGE_CURVE('',#114,#114,#98,.T.);
#131=EDGE_CURVE('',#115,#115,#99,.T.);
#132=EDGE_CURVE('',#116,#116,#100,.T.);
#133=EDGE_CURVE('',#117,#117,#101,.T.);
#134=EDGE_CURVE('',#118,#118,#102,.T.);
#135=EDGE_CURVE('',#119,#119,#103,.T.);
#136=EDGE_CURVE('',#120,#120,#104,.T.);
#137=EDGE_CURVE('',#121,#121,#105,.T.);
#138=EDGE_CURVE('',#122,#122,#106,.T.);
#139=EDGE_CURVE('',#123,#123,#107,.T.);
#140=ORIENTED_EDGE('',*,*,#124,.F.);
#141=ORIENTED_EDGE('',*,*,#125,.F.);
#142=ORIENTED_EDGE('',*,*,#125,.T.);
#143=ORIENTED_EDGE('',*,*,#126,.F.);
#144=ORIENTED_EDGE('',*,*,#127,.F.);
#145=ORIENTED_EDGE('',*,*,#128,.T.);
#146=ORIENTED_EDGE('',*,*,#126,.T.);
#147=ORIENTED_EDGE('',*,*,#128,.F.);
#148=ORIENTED_EDGE('',*,*,#129,.F.);
#149=ORIENTED_EDGE('',*,*,#130,.F.);
#150=ORIENTED_EDGE('',*,*,#129,.T.);
#151=ORIENTED_EDGE('',*,*,#131,.T.);
#152=ORIENTED_EDGE('',*,*,#131,.F.);
#153=ORIENTED_EDGE('',*,*,#124,.T.);
#154=ORIENTED_EDGE('',*,*,#132,.F.);
#155=ORIENTED_EDGE('',*,*,#130,.T.);
#156=ORIENTED_EDGE('',*,*,#133,.F.);
#157=ORIENTED_EDGE('',*,*,#127,.T.);
#158=ORIENTED_EDGE('',*,*,#134,.T.);
#159=ORIENTED_EDGE('',*,*,#135,.T.);
#160=ORIENTED_EDGE('',*,*,#136,.T.);
#161=ORIENTED_EDGE('',*,*,#134,.F.);
#162=ORIENTED_EDGE('',*,*,#137,.F.);
#163=ORIENTED_EDGE('',*,*,#135,.F.);
#164=ORIENTED_EDGE('',*,*,#138,.T.);
#165=ORIENTED_EDGE('',*,*,#133,.T.);
#166=ORIENTED_EDGE('',*,*,#139,.F.);
#167=ORIENTED_EDGE('',*,*,#138,.F.);
#168=ORIENTED_EDGE('',*,*,#136,.F.);
#169=ORIENTED_EDGE('',*,*,#132,.T.);
#170=ORIENTED_EDGE('',*,*,#139,.T.);
#171=ORIENTED_EDGE('',*,*,#137,.T.);
#172=TOROIDAL_SURFACE('',#212,0.2795,0.035);
#173=TOROIDAL_SURFACE('',#225,0.355,0.02);
#174=TOROIDAL_SURFACE('',#232,0.6215,0.125);
#175=STYLED_ITEM('',(#388),#193);
#176=STYLED_ITEM('',(#389),#194);
#177=STYLED_ITEM('',(#389),#195);
#178=STYLED_ITEM('',(#389),#196);
#179=STYLED_ITEM('',(#389),#197);
#180=STYLED_ITEM('',(#389),#198);
#181=STYLED_ITEM('',(#389),#199);
#182=STYLED_ITEM('',(#389),#200);
#183=STYLED_ITEM('',(#390),#201);
#184=STYLED_ITEM('',(#390),#202);
#185=STYLED_ITEM('',(#390),#203);
#186=STYLED_ITEM('',(#390),#204);
#187=STYLED_ITEM('',(#390),#205);
#188=STYLED_ITEM('',(#390),#206);
#189=STYLED_ITEM('',(#391),#207);
#190=STYLED_ITEM('',(#390),#208);
#191=STYLED_ITEM('',(#390),#209);
#192=STYLED_ITEM('',(#387),#13);
#193=ADVANCED_FACE('',(#43,#28),#172,.T.);
#194=ADVANCED_FACE('',(#44),#23,.T.);
#195=ADVANCED_FACE('',(#45,#29),#18,.T.);
#196=ADVANCED_FACE('',(#46,#30),#14,.T.);
#197=ADVANCED_FACE('',(#47),#24,.T.);
#198=ADVANCED_FACE('',(#48,#31),#19,.T.);
#199=ADVANCED_FACE('',(#49,#32),#173,.T.);
#200=ADVANCED_FACE('',(#50,#33),#25,.T.);
#201=ADVANCED_FACE('',(#51,#34),#26,.T.);
#202=ADVANCED_FACE('',(#52,#35),#27,.T.);
#203=ADVANCED_FACE('',(#53,#36),#174,.F.);
#204=ADVANCED_FACE('',(#54,#37),#20,.T.);
#205=ADVANCED_FACE('',(#55,#38),#15,.T.);
#206=ADVANCED_FACE('',(#56,#39),#16,.T.);
#207=ADVANCED_FACE('',(#57,#40),#21,.T.);
#208=ADVANCED_FACE('',(#58,#41),#17,.T.);
#209=ADVANCED_FACE('',(#59,#42),#22,.T.);
#210=CLOSED_SHELL('',(#193,#194,#195,#196,#197,#198,#199,#200,#201,#202,
#203,#204,#205,#206,#207,#208,#209));
#211=AXIS2_PLACEMENT_3D('placement',#313,#245,#246);
#212=AXIS2_PLACEMENT_3D('',#314,#247,#248);
#213=AXIS2_PLACEMENT_3D('',#316,#249,#250);
#214=AXIS2_PLACEMENT_3D('',#318,#251,#252);
#215=AXIS2_PLACEMENT_3D('',#319,#253,#254);
#216=AXIS2_PLACEMENT_3D('',#320,#255,#256);
#217=AXIS2_PLACEMENT_3D('',#322,#257,#258);
#218=AXIS2_PLACEMENT_3D('',#324,#259,#260);
#219=AXIS2_PLACEMENT_3D('',#325,#261,#262);
#220=AXIS2_PLACEMENT_3D('',#327,#263,#264);
#221=AXIS2_PLACEMENT_3D('',#328,#265,#266);
#222=AXIS2_PLACEMENT_3D('',#329,#267,#268);
#223=AXIS2_PLACEMENT_3D('',#331,#269,#270);
#224=AXIS2_PLACEMENT_3D('',#333,#271,#272);
#225=AXIS2_PLACEMENT_3D('',#334,#273,#274);
#226=AXIS2_PLACEMENT_3D('',#336,#275,#276);
#227=AXIS2_PLACEMENT_3D('',#337,#277,#278);
#228=AXIS2_PLACEMENT_3D('',#338,#279,#280);
#229=AXIS2_PLACEMENT_3D('',#340,#281,#282);
#230=AXIS2_PLACEMENT_3D('',#341,#283,#284);
#231=AXIS2_PLACEMENT_3D('',#343,#285,#286);
#232=AXIS2_PLACEMENT_3D('',#344,#287,#288);
#233=AXIS2_PLACEMENT_3D('',#346,#289,#290);
#234=AXIS2_PLACEMENT_3D('',#348,#291,#292);
#235=AXIS2_PLACEMENT_3D('',#349,#293,#294);
#236=AXIS2_PLACEMENT_3D('',#351,#295,#296);
#237=AXIS2_PLACEMENT_3D('',#352,#297,#298);
#238=AXIS2_PLACEMENT_3D('',#354,#299,#300);
#239=AXIS2_PLACEMENT_3D('',#355,#301,#302);
#240=AXIS2_PLACEMENT_3D('',#357,#303,#304);
#241=AXIS2_PLACEMENT_3D('',#358,#305,#306);
#242=AXIS2_PLACEMENT_3D('',#360,#307,#308);
#243=AXIS2_PLACEMENT_3D('',#361,#309,#310);
#244=AXIS2_PLACEMENT_3D('',#362,#311,#312);
#245=DIRECTION('axis',(0.,0.,1.));
#246=DIRECTION('refdir',(1.,0.,0.));
#247=DIRECTION('center_axis',(1.,9.96433655851435E-16,-6.12323399573676E-17));
#248=DIRECTION('ref_axis',(0.,-0.00621281746056233,-0.999980700263361));
#249=DIRECTION('center_axis',(-1.,-5.14534703752697E-16,3.06161699786838E-17));
#250=DIRECTION('ref_axis',(-3.06161699786838E-17,0.,-1.));
#251=DIRECTION('center_axis',(1.,5.14534703752697E-16,-3.06161699786838E-17));
#252=DIRECTION('ref_axis',(-3.06161699786838E-17,0.,-1.));
#253=DIRECTION('center_axis',(1.,3.26357516539585E-17,6.34414063660007E-32));
#254=DIRECTION('ref_axis',(0.,0.,-1.));
#255=DIRECTION('center_axis',(1.,1.22464679914735E-16,0.));
#256=DIRECTION('ref_axis',(-1.22464679914735E-16,1.,0.));
#257=DIRECTION('center_axis',(-1.,-1.22464679914735E-16,0.));
#258=DIRECTION('ref_axis',(1.22464679914735E-16,-1.,0.));
#259=DIRECTION('center_axis',(1.,4.3748859269764E-16,7.60631898275712E-34));
#260=DIRECTION('ref_axis',(-1.22464679914735E-16,1.,0.));
#261=DIRECTION('center_axis',(1.,1.22464679914735E-16,0.));
#262=DIRECTION('ref_axis',(1.22464679914735E-16,-1.,0.));
#263=DIRECTION('center_axis',(1.,1.22464679914735E-16,0.));
#264=DIRECTION('ref_axis',(1.22464679914735E-16,-1.,0.));
#265=DIRECTION('center_axis',(-1.,-1.22464679914735E-16,0.));
#266=DIRECTION('ref_axis',(0.,0.,1.));
#267=DIRECTION('center_axis',(1.,3.26357516539585E-17,6.34414063660007E-32));
#268=DIRECTION('ref_axis',(-3.26357516539585E-17,1.,-2.07045798273866E-48));
#269=DIRECTION('center_axis',(1.,3.26357516539585E-17,6.34414063660007E-32));
#270=DIRECTION('ref_axis',(3.26357516539585E-17,-1.,1.22464679914735E-16));
#271=DIRECTION('center_axis',(-1.,-4.3748859269764E-16,-7.60631898275712E-34));
#272=DIRECTION('ref_axis',(-3.26357516539585E-17,1.,-2.07045798273866E-48));
#273=DIRECTION('center_axis',(1.,3.26357516539585E-17,6.34414063660007E-32));
#274=DIRECTION('ref_axis',(0.,0.,-1.));
#275=DIRECTION('center_axis',(-1.,-3.26357516539585E-17,-6.34414063660007E-32));
#276=DIRECTION('ref_axis',(3.26357516539585E-17,-1.,1.22464679914735E-16));
#277=DIRECTION('center_axis',(1.,3.26357516539585E-17,6.34414063660007E-32));
#278=DIRECTION('ref_axis',(0.,0.,-1.));
#279=DIRECTION('center_axis',(1.,4.3748859269764E-16,7.60631898275712E-34));
#280=DIRECTION('ref_axis',(0.,0.,-1.));
#281=DIRECTION('center_axis',(-1.,-4.3748859269764E-16,-7.60631898275712E-34));
#282=DIRECTION('ref_axis',(-4.3748859269764E-16,1.,-4.37123063391403E-47));
#283=DIRECTION('center_axis',(-1.,-4.3748859269764E-16,-7.60631898275712E-34));
#284=DIRECTION('ref_axis',(0.,0.,1.));
#285=DIRECTION('center_axis',(1.,4.3748859269764E-16,7.60631898275712E-34));
#286=DIRECTION('ref_axis',(4.3748859269764E-16,-1.,4.37123063391403E-47));
#287=DIRECTION('center_axis',(-1.,-4.3748859269764E-16,-7.60631898275712E-34));
#288=DIRECTION('ref_axis',(0.,0.,1.));
#289=DIRECTION('center_axis',(-1.,-4.3748859269764E-16,-7.60631898275712E-34));
#290=DIRECTION('ref_axis',(4.3748859269764E-16,-1.,-1.22464679914735E-16));
#291=DIRECTION('center_axis',(1.,4.3748859269764E-16,7.60631898275712E-34));
#292=DIRECTION('ref_axis',(4.3748859269764E-16,-1.,4.37123063391403E-47));
#293=DIRECTION('center_axis',(-1.,-4.3748859269764E-16,-7.60631898275712E-34));
#294=DIRECTION('ref_axis',(-4.3748859269764E-16,1.,-4.37123063391403E-47));
#295=DIRECTION('center_axis',(-1.,-4.3748859269764E-16,-7.60631898275712E-34));
#296=DIRECTION('ref_axis',(-4.3748859269764E-16,1.,-4.37123063391403E-47));
#297=DIRECTION('center_axis',(-1.,-4.3748859269764E-16,-7.60631898275712E-34));
#298=DIRECTION('ref_axis',(-4.3748859269764E-16,1.,-4.37123063391403E-47));
#299=DIRECTION('center_axis',(-1.,-4.3748859269764E-16,-7.60631898275712E-34));
#300=DIRECTION('ref_axis',(-4.3748859269764E-16,1.,-4.37123063391403E-47));
#301=DIRECTION('center_axis',(1.,4.3748859269764E-16,7.60631898275712E-34));
#302=DIRECTION('ref_axis',(4.3748859269764E-16,-1.,4.37123063391403E-47));
#303=DIRECTION('center_axis',(-1.,-4.3748859269764E-16,-7.60631898275712E-34));
#304=DIRECTION('ref_axis',(4.3748859269764E-16,-1.,4.37123063391403E-47));
#305=DIRECTION('center_axis',(-1.,-4.3748859269764E-16,-7.60631898275712E-34));
#306=DIRECTION('ref_axis',(-4.3748859269764E-16,1.,-4.37123063391403E-47));
#307=DIRECTION('center_axis',(1.,4.3748859269764E-16,7.60631898275712E-34));
#308=DIRECTION('ref_axis',(-4.3748859269764E-16,1.,-4.37123063391403E-47));
#309=DIRECTION('center_axis',(-1.,-4.3748859269764E-16,-7.60631898275712E-34));
#310=DIRECTION('ref_axis',(-4.3748859269764E-16,1.,-4.37123063391403E-47));
#311=DIRECTION('center_axis',(-1.,-4.3748859269764E-16,-7.60631898275712E-34));
#312=DIRECTION('ref_axis',(-4.3748859269764E-16,1.,-4.37123063391403E-47));
#313=CARTESIAN_POINT('',(0.,0.,0.));
#314=CARTESIAN_POINT('Origin',(1.03799999999999,4.97368855206328E-17,-4.04051132116322E-32));
#315=CARTESIAN_POINT('',(1.054,9.60104930382077E-17,0.310628764832542));
#316=CARTESIAN_POINT('Origin',(1.054,5.79694407806809E-17,-4.89858719659278E-19));
#317=CARTESIAN_POINT('',(1.054,2.75527369658707E-17,0.248371235167458));
#318=CARTESIAN_POINT('Origin',(1.054,5.79694407806809E-17,-4.89858719659278E-19));
#319=CARTESIAN_POINT('Origin',(1.054,0.335419872981078,9.5415875174465E-32));
#320=CARTESIAN_POINT('Origin',(-0.6675,-8.17451738430858E-17,0.));
#321=CARTESIAN_POINT('',(-0.715,0.5625,-6.88863824520386E-17));
#322=CARTESIAN_POINT('Origin',(-0.715,-8.75622461390358E-17,0.));
#323=CARTESIAN_POINT('',(-0.712000000000008,-0.5625,-6.88863824520386E-17));
#324=CARTESIAN_POINT('Origin',(-0.712000000000008,-8.71948520992926E-17,
0.));
#325=CARTESIAN_POINT('Origin',(-0.73,-8.93992163377568E-17,0.));
#326=CARTESIAN_POINT('',(-0.745,0.5325,6.52124420545965E-17));
#327=CARTESIAN_POINT('Origin',(-0.745,-9.12361865364778E-17,0.));
#328=CARTESIAN_POINT('Origin',(-0.745,0.28125,0.));
#329=CARTESIAN_POINT('Origin',(0.527,3.18851293659175E-17,6.19822540195827E-32));
#330=CARTESIAN_POINT('',(1.034,0.375,9.4147047047145E-32));
#331=CARTESIAN_POINT('Origin',(1.034,4.84314554544744E-17,9.4147047047145E-32));
#332=CARTESIAN_POINT('',(1.01299999999999,-0.375,4.59242549680258E-17));
#333=CARTESIAN_POINT('Origin',(1.01299999999999,4.77461046697411E-17,9.28147775134585E-32));
#334=CARTESIAN_POINT('Origin',(1.034,4.84314554544744E-17,9.4147047047145E-32));
#335=CARTESIAN_POINT('',(1.054,0.355,-8.6949922739462E-17));
#336=CARTESIAN_POINT('Origin',(1.054,4.90841704875536E-17,9.5415875174465E-32));
#337=CARTESIAN_POINT('Origin',(1.054,0.335419872981078,9.5415875174465E-32));
#338=CARTESIAN_POINT('Origin',(1.01299999999999,0.225,3.76996058146757E-32));
#339=CARTESIAN_POINT('',(1.01299999999999,0.45,3.76996058146757E-32));
#340=CARTESIAN_POINT('Origin',(1.01299999999999,-1.804481326807E-16,3.76996058146758E-32));
#341=CARTESIAN_POINT('Origin',(-0.712000000000008,0.429999999999999,3.63875157901501E-32));
#342=CARTESIAN_POINT('',(-0.712000000000008,0.819999999999999,1.00421037530083E-16));
#343=CARTESIAN_POINT('Origin',(-0.712000000000008,-9.35115955084128E-16,
3.63875157901502E-32));
#344=CARTESIAN_POINT('Origin',(0.50300377355803,-4.035656640679E-16,3.73116864168438E-32));
#345=CARTESIAN_POINT('',(0.50300377355803,0.4965,3.73116864168437E-32));
#346=CARTESIAN_POINT('Origin',(0.50300377355803,-4.035656640679E-16,3.73116864168438E-32));
#347=CARTESIAN_POINT('',(0.394750598084975,0.559,1.36915512144674E-16));
#348=CARTESIAN_POINT('Origin',(0.394750598084975,-4.50925193460658E-16,
6.84577560723371E-17));
#349=CARTESIAN_POINT('Origin',(0.708494101196,-3.13665989816588E-16,3.74679889148323E-32));
#350=CARTESIAN_POINT('',(0.986153212482674,0.4965,3.76791852917238E-32));
#351=CARTESIAN_POINT('Origin',(0.986153212482674,-1.92193295970103E-16,
3.76791852917238E-32));
#352=CARTESIAN_POINT('Origin',(0.325901578484113,-4.81045854154451E-16,
3.71769768380159E-32));
#353=CARTESIAN_POINT('',(0.220968167058898,0.859999999999999,3.70971611380909E-32));
#354=CARTESIAN_POINT('Origin',(0.220968167058898,-5.26953024645831E-16,
3.7097161138091E-32));
#355=CARTESIAN_POINT('Origin',(-0.692000000000008,-9.26366183230175E-16,
3.64027284281157E-32));
#356=CARTESIAN_POINT('',(-0.672000000000008,0.859999999999999,-1.05319624726672E-16));
#357=CARTESIAN_POINT('Origin',(-0.672000000000008,-9.17616411376222E-16,
3.64179410660812E-32));
#358=CARTESIAN_POINT('Origin',(-0.245515916470555,-7.31034489864979E-16,
3.67423384641206E-32));
#359=CARTESIAN_POINT('',(-0.212000000000007,-0.860000000000001,-1.05319624726672E-16));
#360=CARTESIAN_POINT('Origin',(-0.212000000000008,-7.16371658735308E-16,
3.6767831739288E-32));
#361=CARTESIAN_POINT('Origin',(0.999576606241333,-1.86320714325401E-16,
3.76893955531998E-32));
#362=CARTESIAN_POINT('Origin',(-0.245515916470555,-7.31034489864979E-16,
3.67423384641206E-32));
#363=UNCERTAINTY_MEASURE_WITH_UNIT(LENGTH_MEASURE(0.000393700787401575),
#367,'DISTANCE_ACCURACY_VALUE',
'Maximum model space distance between geometric entities at asserted c
onnectivities');
#364=UNCERTAINTY_MEASURE_WITH_UNIT(LENGTH_MEASURE(1.E-6),#368,
'DISTANCE_ACCURACY_VALUE',
'Maximum model space distance between geometric entities at asserted c
onnectivities');
#365=(
GEOMETRIC_REPRESENTATION_CONTEXT(3)
GLOBAL_UNCERTAINTY_ASSIGNED_CONTEXT((#363))
GLOBAL_UNIT_ASSIGNED_CONTEXT((#367,#373,#370))
REPRESENTATION_CONTEXT('','3D')
);
#366=(
GEOMETRIC_REPRESENTATION_CONTEXT(3)
GLOBAL_UNCERTAINTY_ASSIGNED_CONTEXT((#364))
GLOBAL_UNIT_ASSIGNED_CONTEXT((#368,#373,#370))
REPRESENTATION_CONTEXT('','3D')
);
#367=(
CONVERSION_BASED_UNIT('__CONSTANT UNIT inch',#369)
LENGTH_UNIT()
NAMED_UNIT(#372)
);
#368=(
LENGTH_UNIT()
NAMED_UNIT(*)
SI_UNIT(.MILLI.,.METRE.)
);
#369=LENGTH_MEASURE_WITH_UNIT(LENGTH_MEASURE(25.4),#368);
#370=(
NAMED_UNIT(*)
SI_UNIT($,.STERADIAN.)
SOLID_ANGLE_UNIT()
);
#371=DIMENSIONAL_EXPONENTS(0.,0.,0.,0.,0.,0.,0.);
#372=DIMENSIONAL_EXPONENTS(1.,0.,0.,0.,0.,0.,0.);
#373=(
CONVERSION_BASED_UNIT('degree',#375)
NAMED_UNIT(#371)
PLANE_ANGLE_UNIT()
);
#374=(
NAMED_UNIT(*)
PLANE_ANGLE_UNIT()
SI_UNIT($,.RADIAN.)
);
#375=PLANE_ANGLE_MEASURE_WITH_UNIT(PLANE_ANGLE_MEASURE(0.01745329252),#374);
#376=SHAPE_DEFINITION_REPRESENTATION(#377,#378);
#377=PRODUCT_DEFINITION_SHAPE('',$,#380);
#378=SHAPE_REPRESENTATION('',(#211),#365);
#379=PRODUCT_DEFINITION_CONTEXT('part definition',#384,'design');
#380=PRODUCT_DEFINITION('MITH-10KP','MITH-10KP',#381,#379);
#381=PRODUCT_DEFINITION_FORMATION('',$,#386);
#382=PRODUCT_RELATED_PRODUCT_CATEGORY('MITH-10KP','MITH-10KP',(#386));
#383=APPLICATION_PROTOCOL_DEFINITION('international standard',
'automotive_design',2009,#384);
#384=APPLICATION_CONTEXT(
'Core Data for Automotive Mechanical Design Process');
#385=PRODUCT_CONTEXT('part definition',#384,'mechanical');
#386=PRODUCT('MITH-10KP','MITH-10KP',$,(#385));
#387=PRESENTATION_STYLE_ASSIGNMENT((#392));
#388=PRESENTATION_STYLE_ASSIGNMENT((#393));
#389=PRESENTATION_STYLE_ASSIGNMENT((#394));
#390=PRESENTATION_STYLE_ASSIGNMENT((#395));
#391=PRESENTATION_STYLE_ASSIGNMENT((#396));
#392=SURFACE_STYLE_USAGE(.BOTH.,#397);
#393=SURFACE_STYLE_USAGE(.BOTH.,#398);
#394=SURFACE_STYLE_USAGE(.BOTH.,#399);
#395=SURFACE_STYLE_USAGE(.BOTH.,#400);
#396=SURFACE_STYLE_USAGE(.BOTH.,#401);
#397=SURFACE_SIDE_STYLE('',(#402));
#398=SURFACE_SIDE_STYLE('',(#403));
#399=SURFACE_SIDE_STYLE('',(#404));
#400=SURFACE_SIDE_STYLE('',(#405));
#401=SURFACE_SIDE_STYLE('',(#406));
#402=SURFACE_STYLE_FILL_AREA(#407);
#403=SURFACE_STYLE_FILL_AREA(#408);
#404=SURFACE_STYLE_FILL_AREA(#409);
#405=SURFACE_STYLE_FILL_AREA(#410);
#406=SURFACE_STYLE_FILL_AREA(#411);
#407=FILL_AREA_STYLE('',(#412));
#408=FILL_AREA_STYLE('',(#413));
#409=FILL_AREA_STYLE('',(#414));
#410=FILL_AREA_STYLE('',(#415));
#411=FILL_AREA_STYLE('',(#416));
#412=FILL_AREA_STYLE_COLOUR('',#417);
#413=FILL_AREA_STYLE_COLOUR('',#418);
#414=FILL_AREA_STYLE_COLOUR('',#419);
#415=FILL_AREA_STYLE_COLOUR('',#420);
#416=FILL_AREA_STYLE_COLOUR('',#421);
#417=COLOUR_RGB('',0.63921568627451,0.63921568627451,0.686274509803922);
#418=COLOUR_RGB('',0.309803921568627,0.309803921568627,0.309803921568627);
#419=COLOUR_RGB('',0.67843137254902,0.768627450980392,0.811764705882353);
#420=COLOUR_RGB('',0.580392156862745,0.650980392156863,0.72156862745098);
#421=COLOUR_RGB('',0.580392156862745,0.580392156862745,0.592156862745098);
ENDSEC;
END-ISO-10303-21;
