ISO-10303-21;
HEADER;
/* Generated by software containing ST-Developer
 * from STEP Tools, Inc. (www.steptools.com) 
 */

FILE_DESCRIPTION(
/* description */ (''),
/* implementation_level */ '2;1');

FILE_NAME(
/* name */ 'S:\\Marketing\\CAD Models\\MIT\\MITH-160P.stp',
/* time_stamp */ '2016-05-02T13:44:39-05:00',
/* author */ ('scottg'),
/* organization */ ('FasTest,Inc.'),
/* preprocessor_version */ 'ST-DEVELOPER v16.1',
/* originating_system */ 'Autodesk Inventor 2016',
/* authorisation */ '');

FILE_SCHEMA (('AUTOMOTIVE_DESIGN { 1 0 10303 214 3 1 1 }'));
ENDSEC;

DATA;
#10=MECHANICAL_DESIGN_GEOMETRIC_PRESENTATION_REPRESENTATION('',(#255,#252,
#251,#250,#249,#254,#248,#246,#244,#247,#253,#236,#234,#232,#237,#235,#233,
#243,#240,#239,#242,#241,#245,#238),#484);
#11=SHAPE_REPRESENTATION_RELATIONSHIP('SRR','None',#496,#12);
#12=ADVANCED_BREP_SHAPE_REPRESENTATION('',(#13),#483);
#13=MANIFOLD_SOLID_BREP('Solid1',#279);
#14=PLANE('',#293);
#15=PLANE('',#302);
#16=PLANE('',#305);
#17=PLANE('',#324);
#18=CYLINDRICAL_SURFACE('',#290,0.5055);
#19=CYLINDRICAL_SURFACE('',#307,1.0625);
#20=CYLINDRICAL_SURFACE('',#311,1.0625);
#21=CYLINDRICAL_SURFACE('',#315,0.653);
#22=CYLINDRICAL_SURFACE('',#323,0.672);
#23=CONICAL_SURFACE('',#286,0.458065815568676,51.);
#24=CONICAL_SURFACE('',#288,0.407061339518775,38.9999999999997);
#25=CONICAL_SURFACE('',#295,0.493440097206193,39.0000000000001);
#26=CONICAL_SURFACE('',#296,0.458065815568676,51.);
#27=CONICAL_SURFACE('',#297,0.407061339518775,38.9999999999997);
#28=CONICAL_SURFACE('',#299,0.402685621156291,51.0000000000001);
#29=CONICAL_SURFACE('',#301,0.4005,39.);
#30=CONICAL_SURFACE('',#310,1.0425,44.9999999999998);
#31=CONICAL_SURFACE('',#313,0.62525,60.0000000000001);
#32=CONICAL_SURFACE('',#319,0.889,60.);
#33=CONICAL_SURFACE('',#320,0.6645,44.9999999999998);
#34=FACE_BOUND('',#79,.T.);
#35=FACE_BOUND('',#81,.T.);
#36=FACE_BOUND('',#83,.T.);
#37=FACE_BOUND('',#85,.T.);
#38=FACE_BOUND('',#87,.T.);
#39=FACE_BOUND('',#90,.T.);
#40=FACE_BOUND('',#92,.T.);
#41=FACE_BOUND('',#94,.T.);
#42=FACE_BOUND('',#96,.T.);
#43=FACE_BOUND('',#98,.T.);
#44=FACE_BOUND('',#100,.T.);
#45=FACE_BOUND('',#102,.T.);
#46=FACE_BOUND('',#104,.T.);
#47=FACE_BOUND('',#106,.T.);
#48=FACE_BOUND('',#108,.T.);
#49=FACE_BOUND('',#110,.T.);
#50=FACE_BOUND('',#112,.T.);
#51=FACE_BOUND('',#114,.T.);
#52=FACE_BOUND('',#116,.T.);
#53=FACE_BOUND('',#118,.T.);
#54=FACE_BOUND('',#120,.T.);
#55=FACE_OUTER_BOUND('',#78,.T.);
#56=FACE_OUTER_BOUND('',#80,.T.);
#57=FACE_OUTER_BOUND('',#82,.T.);
#58=FACE_OUTER_BOUND('',#84,.T.);
#59=FACE_OUTER_BOUND('',#86,.T.);
#60=FACE_OUTER_BOUND('',#88,.T.);
#61=FACE_OUTER_BOUND('',#89,.T.);
#62=FACE_OUTER_BOUND('',#91,.T.);
#63=FACE_OUTER_BOUND('',#93,.T.);
#64=FACE_OUTER_BOUND('',#95,.T.);
#65=FACE_OUTER_BOUND('',#97,.T.);
#66=FACE_OUTER_BOUND('',#99,.T.);
#67=FACE_OUTER_BOUND('',#101,.T.);
#68=FACE_OUTER_BOUND('',#103,.T.);
#69=FACE_OUTER_BOUND('',#105,.T.);
#70=FACE_OUTER_BOUND('',#107,.T.);
#71=FACE_OUTER_BOUND('',#109,.T.);
#72=FACE_OUTER_BOUND('',#111,.T.);
#73=FACE_OUTER_BOUND('',#113,.T.);
#74=FACE_OUTER_BOUND('',#115,.T.);
#75=FACE_OUTER_BOUND('',#117,.T.);
#76=FACE_OUTER_BOUND('',#119,.T.);
#77=FACE_OUTER_BOUND('',#121,.T.);
#78=EDGE_LOOP('',(#185));
#79=EDGE_LOOP('',(#186));
#80=EDGE_LOOP('',(#187));
#81=EDGE_LOOP('',(#188));
#82=EDGE_LOOP('',(#189));
#83=EDGE_LOOP('',(#190));
#84=EDGE_LOOP('',(#191));
#85=EDGE_LOOP('',(#192));
#86=EDGE_LOOP('',(#193));
#87=EDGE_LOOP('',(#194));
#88=EDGE_LOOP('',(#195));
#89=EDGE_LOOP('',(#196));
#90=EDGE_LOOP('',(#197));
#91=EDGE_LOOP('',(#198));
#92=EDGE_LOOP('',(#199));
#93=EDGE_LOOP('',(#200));
#94=EDGE_LOOP('',(#201));
#95=EDGE_LOOP('',(#202));
#96=EDGE_LOOP('',(#203));
#97=EDGE_LOOP('',(#204));
#98=EDGE_LOOP('',(#205));
#99=EDGE_LOOP('',(#206));
#100=EDGE_LOOP('',(#207));
#101=EDGE_LOOP('',(#208));
#102=EDGE_LOOP('',(#209));
#103=EDGE_LOOP('',(#210));
#104=EDGE_LOOP('',(#211));
#105=EDGE_LOOP('',(#212));
#106=EDGE_LOOP('',(#213));
#107=EDGE_LOOP('',(#214));
#108=EDGE_LOOP('',(#215));
#109=EDGE_LOOP('',(#216));
#110=EDGE_LOOP('',(#217));
#111=EDGE_LOOP('',(#218));
#112=EDGE_LOOP('',(#219));
#113=EDGE_LOOP('',(#220));
#114=EDGE_LOOP('',(#221));
#115=EDGE_LOOP('',(#222));
#116=EDGE_LOOP('',(#223));
#117=EDGE_LOOP('',(#224));
#118=EDGE_LOOP('',(#225));
#119=EDGE_LOOP('',(#226));
#120=EDGE_LOOP('',(#227));
#121=EDGE_LOOP('',(#228));
#122=CIRCLE('',#282,0.399381945648189);
#123=CIRCLE('',#283,0.46317281564199);
#124=CIRCLE('',#285,0.419775296517766);
#125=CIRCLE('',#287,0.481380194412386);
#126=CIRCLE('',#289,0.434751436724967);
#127=CIRCLE('',#291,0.5055);
#128=CIRCLE('',#292,0.5055);
#129=CIRCLE('',#294,0.375);
#130=CIRCLE('',#298,0.379371242312582);
#131=CIRCLE('',#300,0.426);
#132=CIRCLE('',#303,1.0225);
#133=CIRCLE('',#304,0.672);
#134=CIRCLE('',#306,0.5975);
#135=CIRCLE('',#308,1.0625);
#136=CIRCLE('',#309,1.0625);
#137=CIRCLE('',#312,1.0625);
#138=CIRCLE('',#314,0.653);
#139=CIRCLE('',#316,0.653);
#140=CIRCLE('',#318,0.7155);
#141=CIRCLE('',#321,0.672);
#142=CIRCLE('',#322,0.657);
#143=VERTEX_POINT('',#417);
#144=VERTEX_POINT('',#419);
#145=VERTEX_POINT('',#422);
#146=VERTEX_POINT('',#425);
#147=VERTEX_POINT('',#428);
#148=VERTEX_POINT('',#431);
#149=VERTEX_POINT('',#433);
#150=VERTEX_POINT('',#436);
#151=VERTEX_POINT('',#441);
#152=VERTEX_POINT('',#444);
#153=VERTEX_POINT('',#448);
#154=VERTEX_POINT('',#450);
#155=VERTEX_POINT('',#453);
#156=VERTEX_POINT('',#456);
#157=VERTEX_POINT('',#458);
#158=VERTEX_POINT('',#462);
#159=VERTEX_POINT('',#465);
#160=VERTEX_POINT('',#468);
#161=VERTEX_POINT('',#471);
#162=VERTEX_POINT('',#475);
#163=VERTEX_POINT('',#477);
#164=EDGE_CURVE('',#143,#143,#122,.T.);
#165=EDGE_CURVE('',#144,#144,#123,.T.);
#166=EDGE_CURVE('',#145,#145,#124,.T.);
#167=EDGE_CURVE('',#146,#146,#125,.T.);
#168=EDGE_CURVE('',#147,#147,#126,.T.);
#169=EDGE_CURVE('',#148,#148,#127,.T.);
#170=EDGE_CURVE('',#149,#149,#128,.T.);
#171=EDGE_CURVE('',#150,#150,#129,.T.);
#172=EDGE_CURVE('',#151,#151,#130,.T.);
#173=EDGE_CURVE('',#152,#152,#131,.T.);
#174=EDGE_CURVE('',#153,#153,#132,.T.);
#175=EDGE_CURVE('',#154,#154,#133,.T.);
#176=EDGE_CURVE('',#155,#155,#134,.T.);
#177=EDGE_CURVE('',#156,#156,#135,.T.);
#178=EDGE_CURVE('',#157,#157,#136,.T.);
#179=EDGE_CURVE('',#158,#158,#137,.T.);
#180=EDGE_CURVE('',#159,#159,#138,.T.);
#181=EDGE_CURVE('',#160,#160,#139,.T.);
#182=EDGE_CURVE('',#161,#161,#140,.T.);
#183=EDGE_CURVE('',#162,#162,#141,.T.);
#184=EDGE_CURVE('',#163,#163,#142,.T.);
#185=ORIENTED_EDGE('',*,*,#164,.F.);
#186=ORIENTED_EDGE('',*,*,#165,.T.);
#187=ORIENTED_EDGE('',*,*,#165,.F.);
#188=ORIENTED_EDGE('',*,*,#166,.F.);
#189=ORIENTED_EDGE('',*,*,#167,.T.);
#190=ORIENTED_EDGE('',*,*,#165,.F.);
#191=ORIENTED_EDGE('',*,*,#168,.T.);
#192=ORIENTED_EDGE('',*,*,#166,.T.);
#193=ORIENTED_EDGE('',*,*,#169,.F.);
#194=ORIENTED_EDGE('',*,*,#170,.F.);
#195=ORIENTED_EDGE('',*,*,#171,.T.);
#196=ORIENTED_EDGE('',*,*,#167,.F.);
#197=ORIENTED_EDGE('',*,*,#169,.T.);
#198=ORIENTED_EDGE('',*,*,#165,.T.);
#199=ORIENTED_EDGE('',*,*,#168,.F.);
#200=ORIENTED_EDGE('',*,*,#164,.T.);
#201=ORIENTED_EDGE('',*,*,#172,.F.);
#202=ORIENTED_EDGE('',*,*,#173,.F.);
#203=ORIENTED_EDGE('',*,*,#172,.T.);
#204=ORIENTED_EDGE('',*,*,#171,.F.);
#205=ORIENTED_EDGE('',*,*,#173,.T.);
#206=ORIENTED_EDGE('',*,*,#174,.F.);
#207=ORIENTED_EDGE('',*,*,#175,.F.);
#208=ORIENTED_EDGE('',*,*,#176,.F.);
#209=ORIENTED_EDGE('',*,*,#170,.T.);
#210=ORIENTED_EDGE('',*,*,#177,.F.);
#211=ORIENTED_EDGE('',*,*,#178,.F.);
#212=ORIENTED_EDGE('',*,*,#177,.T.);
#213=ORIENTED_EDGE('',*,*,#174,.T.);
#214=ORIENTED_EDGE('',*,*,#178,.T.);
#215=ORIENTED_EDGE('',*,*,#179,.T.);
#216=ORIENTED_EDGE('',*,*,#180,.F.);
#217=ORIENTED_EDGE('',*,*,#176,.T.);
#218=ORIENTED_EDGE('',*,*,#181,.F.);
#219=ORIENTED_EDGE('',*,*,#180,.T.);
#220=ORIENTED_EDGE('',*,*,#182,.F.);
#221=ORIENTED_EDGE('',*,*,#181,.T.);
#222=ORIENTED_EDGE('',*,*,#179,.F.);
#223=ORIENTED_EDGE('',*,*,#182,.T.);
#224=ORIENTED_EDGE('',*,*,#183,.T.);
#225=ORIENTED_EDGE('',*,*,#184,.T.);
#226=ORIENTED_EDGE('',*,*,#175,.T.);
#227=ORIENTED_EDGE('',*,*,#183,.F.);
#228=ORIENTED_EDGE('',*,*,#184,.F.);
#229=TOROIDAL_SURFACE('',#281,0.438,0.04);
#230=TOROIDAL_SURFACE('',#284,0.438,0.04);
#231=TOROIDAL_SURFACE('',#317,0.778,0.125);
#232=STYLED_ITEM('',(#506),#256);
#233=STYLED_ITEM('',(#506),#257);
#234=STYLED_ITEM('',(#505),#258);
#235=STYLED_ITEM('',(#505),#259);
#236=STYLED_ITEM('',(#505),#260);
#237=STYLED_ITEM('',(#505),#261);
#238=STYLED_ITEM('',(#505),#262);
#239=STYLED_ITEM('',(#505),#263);
#240=STYLED_ITEM('',(#505),#264);
#241=STYLED_ITEM('',(#505),#265);
#242=STYLED_ITEM('',(#505),#266);
#243=STYLED_ITEM('',(#507),#267);
#244=STYLED_ITEM('',(#507),#268);
#245=STYLED_ITEM('',(#508),#269);
#246=STYLED_ITEM('',(#507),#270);
#247=STYLED_ITEM('',(#507),#271);
#248=STYLED_ITEM('',(#507),#272);
#249=STYLED_ITEM('',(#507),#273);
#250=STYLED_ITEM('',(#507),#274);
#251=STYLED_ITEM('',(#507),#275);
#252=STYLED_ITEM('',(#505),#276);
#253=STYLED_ITEM('',(#505),#277);
#254=STYLED_ITEM('',(#505),#278);
#255=STYLED_ITEM('',(#505),#13);
#256=ADVANCED_FACE('',(#55,#34),#229,.T.);
#257=ADVANCED_FACE('',(#56,#35),#230,.T.);
#258=ADVANCED_FACE('',(#57,#36),#23,.F.);
#259=ADVANCED_FACE('',(#58,#37),#24,.T.);
#260=ADVANCED_FACE('',(#59,#38),#18,.T.);
#261=ADVANCED_FACE('',(#60),#14,.T.);
#262=ADVANCED_FACE('',(#61,#39),#25,.T.);
#263=ADVANCED_FACE('',(#62,#40),#26,.F.);
#264=ADVANCED_FACE('',(#63,#41),#27,.T.);
#265=ADVANCED_FACE('',(#64,#42),#28,.T.);
#266=ADVANCED_FACE('',(#65,#43),#29,.T.);
#267=ADVANCED_FACE('',(#66,#44),#15,.T.);
#268=ADVANCED_FACE('',(#67,#45),#16,.T.);
#269=ADVANCED_FACE('',(#68,#46),#19,.T.);
#270=ADVANCED_FACE('',(#69,#47),#30,.T.);
#271=ADVANCED_FACE('',(#70,#48),#20,.T.);
#272=ADVANCED_FACE('',(#71,#49),#31,.T.);
#273=ADVANCED_FACE('',(#72,#50),#21,.T.);
#274=ADVANCED_FACE('',(#73,#51),#231,.F.);
#275=ADVANCED_FACE('',(#74,#52),#32,.T.);
#276=ADVANCED_FACE('',(#75,#53),#33,.T.);
#277=ADVANCED_FACE('',(#76,#54),#22,.T.);
#278=ADVANCED_FACE('',(#77),#17,.T.);
#279=CLOSED_SHELL('',(#256,#257,#258,#259,#260,#261,#262,#263,#264,#265,
#266,#267,#268,#269,#270,#271,#272,#273,#274,#275,#276,#277,#278));
#280=AXIS2_PLACEMENT_3D('placement',#415,#325,#326);
#281=AXIS2_PLACEMENT_3D('',#416,#327,#328);
#282=AXIS2_PLACEMENT_3D('',#418,#329,#330);
#283=AXIS2_PLACEMENT_3D('',#420,#331,#332);
#284=AXIS2_PLACEMENT_3D('',#421,#333,#334);
#285=AXIS2_PLACEMENT_3D('',#423,#335,#336);
#286=AXIS2_PLACEMENT_3D('',#424,#337,#338);
#287=AXIS2_PLACEMENT_3D('',#426,#339,#340);
#288=AXIS2_PLACEMENT_3D('',#427,#341,#342);
#289=AXIS2_PLACEMENT_3D('',#429,#343,#344);
#290=AXIS2_PLACEMENT_3D('',#430,#345,#346);
#291=AXIS2_PLACEMENT_3D('',#432,#347,#348);
#292=AXIS2_PLACEMENT_3D('',#434,#349,#350);
#293=AXIS2_PLACEMENT_3D('',#435,#351,#352);
#294=AXIS2_PLACEMENT_3D('',#437,#353,#354);
#295=AXIS2_PLACEMENT_3D('',#438,#355,#356);
#296=AXIS2_PLACEMENT_3D('',#439,#357,#358);
#297=AXIS2_PLACEMENT_3D('',#440,#359,#360);
#298=AXIS2_PLACEMENT_3D('',#442,#361,#362);
#299=AXIS2_PLACEMENT_3D('',#443,#363,#364);
#300=AXIS2_PLACEMENT_3D('',#445,#365,#366);
#301=AXIS2_PLACEMENT_3D('',#446,#367,#368);
#302=AXIS2_PLACEMENT_3D('',#447,#369,#370);
#303=AXIS2_PLACEMENT_3D('',#449,#371,#372);
#304=AXIS2_PLACEMENT_3D('',#451,#373,#374);
#305=AXIS2_PLACEMENT_3D('',#452,#375,#376);
#306=AXIS2_PLACEMENT_3D('',#454,#377,#378);
#307=AXIS2_PLACEMENT_3D('',#455,#379,#380);
#308=AXIS2_PLACEMENT_3D('',#457,#381,#382);
#309=AXIS2_PLACEMENT_3D('',#459,#383,#384);
#310=AXIS2_PLACEMENT_3D('',#460,#385,#386);
#311=AXIS2_PLACEMENT_3D('',#461,#387,#388);
#312=AXIS2_PLACEMENT_3D('',#463,#389,#390);
#313=AXIS2_PLACEMENT_3D('',#464,#391,#392);
#314=AXIS2_PLACEMENT_3D('',#466,#393,#394);
#315=AXIS2_PLACEMENT_3D('',#467,#395,#396);
#316=AXIS2_PLACEMENT_3D('',#469,#397,#398);
#317=AXIS2_PLACEMENT_3D('',#470,#399,#400);
#318=AXIS2_PLACEMENT_3D('',#472,#401,#402);
#319=AXIS2_PLACEMENT_3D('',#473,#403,#404);
#320=AXIS2_PLACEMENT_3D('',#474,#405,#406);
#321=AXIS2_PLACEMENT_3D('',#476,#407,#408);
#322=AXIS2_PLACEMENT_3D('',#478,#409,#410);
#323=AXIS2_PLACEMENT_3D('',#479,#411,#412);
#324=AXIS2_PLACEMENT_3D('',#480,#413,#414);
#325=DIRECTION('axis',(0.,0.,1.));
#326=DIRECTION('refdir',(1.,0.,0.));
#327=DIRECTION('center_axis',(1.,1.1688014192563E-15,-2.99139688072192E-18));
#328=DIRECTION('ref_axis',(9.29056924372516E-16,-0.939627259075522,-0.342199669786839));
#329=DIRECTION('center_axis',(-1.,-6.75782693612649E-19,5.75919087538559E-16));
#330=DIRECTION('ref_axis',(-3.27670546641714E-17,0.998446229509012,-0.055723664445516));
#331=DIRECTION('center_axis',(-1.,-6.75782693612649E-19,5.75919087538559E-16));
#332=DIRECTION('ref_axis',(-3.27670546641714E-17,0.998446229509012,-0.0557236644455161));
#333=DIRECTION('center_axis',(1.,1.1688014192563E-15,-2.99139688072192E-18));
#334=DIRECTION('ref_axis',(9.29056924372516E-16,-0.939627259075522,-0.342199669786839));
#335=DIRECTION('center_axis',(1.,6.75782693612649E-19,-5.75919087538559E-16));
#336=DIRECTION('ref_axis',(-3.27670546641714E-17,0.998446229509012,-0.055723664445516));
#337=DIRECTION('center_axis',(-1.,-6.75782693612649E-19,5.75919087538559E-16));
#338=DIRECTION('ref_axis',(-3.27670546641714E-17,0.998446229509012,-0.055723664445516));
#339=DIRECTION('center_axis',(-1.,-6.75782693612649E-19,5.75919087538559E-16));
#340=DIRECTION('ref_axis',(-3.27670546641714E-17,0.998446229509012,-0.055723664445516));
#341=DIRECTION('center_axis',(1.,6.75782693612649E-19,-5.75919087538559E-16));
#342=DIRECTION('ref_axis',(-3.27670546641714E-17,0.998446229509012,-0.055723664445516));
#343=DIRECTION('center_axis',(-1.,-6.75782693612649E-19,5.75919087538559E-16));
#344=DIRECTION('ref_axis',(-3.27670546641714E-17,0.998446229509013,-0.0557236644455161));
#345=DIRECTION('center_axis',(-1.,-6.75782693612649E-19,5.75919087538559E-16));
#346=DIRECTION('ref_axis',(-3.27670546641714E-17,0.998446229509012,-0.055723664445516));
#347=DIRECTION('center_axis',(-1.,-6.75782693612649E-19,5.75919087538559E-16));
#348=DIRECTION('ref_axis',(-3.27670546641714E-17,0.998446229509012,-0.0557236644455161));
#349=DIRECTION('center_axis',(1.,1.69925451490308E-16,-2.85272690751142E-16));
#350=DIRECTION('ref_axis',(-3.27670546641714E-17,0.998446229509012,-0.055723664445516));
#351=DIRECTION('center_axis',(-1.,-6.75782693612649E-19,5.75919087538559E-16));
#352=DIRECTION('ref_axis',(5.6399329650958E-16,0.0557236644455161,0.998446229509013));
#353=DIRECTION('center_axis',(-1.,-6.75782693612649E-19,5.75919087538559E-16));
#354=DIRECTION('ref_axis',(-3.27670546641714E-17,0.998446229509012,-0.055723664445516));
#355=DIRECTION('center_axis',(1.,6.75782693612649E-19,-5.75919087538559E-16));
#356=DIRECTION('ref_axis',(-3.27670546641714E-17,0.998446229509013,-0.055723664445516));
#357=DIRECTION('center_axis',(-1.,-6.75782693612649E-19,5.75919087538559E-16));
#358=DIRECTION('ref_axis',(-3.27670546641714E-17,0.998446229509012,-0.055723664445516));
#359=DIRECTION('center_axis',(1.,6.75782693612649E-19,-5.75919087538559E-16));
#360=DIRECTION('ref_axis',(-3.27670546641714E-17,0.998446229509012,-0.055723664445516));
#361=DIRECTION('center_axis',(-1.,-6.75782693612649E-19,5.75919087538559E-16));
#362=DIRECTION('ref_axis',(-3.27670546641714E-17,0.998446229509012,-0.055723664445516));
#363=DIRECTION('center_axis',(-1.,-6.75782693612649E-19,5.75919087538559E-16));
#364=DIRECTION('ref_axis',(-3.27670546641714E-17,0.998446229509012,-0.0557236644455161));
#365=DIRECTION('center_axis',(-1.,-6.75782693612649E-19,5.75919087538559E-16));
#366=DIRECTION('ref_axis',(-3.27670546641714E-17,0.998446229509013,-0.0557236644455161));
#367=DIRECTION('center_axis',(1.,6.75782693612649E-19,-5.75919087538559E-16));
#368=DIRECTION('ref_axis',(-3.27670546641714E-17,0.998446229509012,-0.0557236644455161));
#369=DIRECTION('center_axis',(1.,1.69925451490308E-16,-2.85272690751142E-16));
#370=DIRECTION('ref_axis',(-2.8199664825479E-16,-0.0281410703127294,-0.999603961657643));
#371=DIRECTION('center_axis',(-1.,-1.69925451490308E-16,2.85272690751142E-16));
#372=DIRECTION('ref_axis',(1.77886033344905E-16,-0.999603961657643,0.0281410703127295));
#373=DIRECTION('center_axis',(1.,1.69925451490308E-16,-2.85272690751142E-16));
#374=DIRECTION('ref_axis',(0.,1.,0.));
#375=DIRECTION('center_axis',(-1.,-1.69925451490308E-16,2.85272690751142E-16));
#376=DIRECTION('ref_axis',(0.,0.0281410703127295,0.999603961657643));
#377=DIRECTION('center_axis',(1.,1.69925451490308E-16,-2.85272690751142E-16));
#378=DIRECTION('ref_axis',(-1.77886033344905E-16,0.999603961657643,-0.0281410703127295));
#379=DIRECTION('center_axis',(1.,1.69925451490308E-16,-2.85272690751142E-16));
#380=DIRECTION('ref_axis',(-1.77886033344905E-16,0.999603961657643,-0.0281410703127295));
#381=DIRECTION('center_axis',(1.,1.69925451490308E-16,-2.85272690751142E-16));
#382=DIRECTION('ref_axis',(1.77886033344905E-16,-0.999603961657643,0.0281410703127295));
#383=DIRECTION('center_axis',(-1.,-1.69925451490308E-16,2.85272690751142E-16));
#384=DIRECTION('ref_axis',(-1.77886033344905E-16,0.999603961657643,-0.0281410703127295));
#385=DIRECTION('center_axis',(-1.,-1.69925451490308E-16,2.85272690751142E-16));
#386=DIRECTION('ref_axis',(1.77886033344905E-16,-0.999603961657643,0.0281410703127295));
#387=DIRECTION('center_axis',(1.,1.69925451490308E-16,-2.85272690751142E-16));
#388=DIRECTION('ref_axis',(-1.77886033344905E-16,0.999603961657643,-0.0281410703127295));
#389=DIRECTION('center_axis',(1.,1.69925451490308E-16,-2.85272690751142E-16));
#390=DIRECTION('ref_axis',(-1.77886033344905E-16,0.999603961657643,-0.0281410703127295));
#391=DIRECTION('center_axis',(1.,1.69925451490308E-16,-2.85272690751142E-16));
#392=DIRECTION('ref_axis',(-1.77886033344905E-16,0.999603961657643,-0.0281410703127295));
#393=DIRECTION('center_axis',(1.,1.69925451490308E-16,-2.85272690751142E-16));
#394=DIRECTION('ref_axis',(-1.77886033344905E-16,0.999603961657643,-0.0281410703127295));
#395=DIRECTION('center_axis',(1.,1.69925451490308E-16,-2.85272690751142E-16));
#396=DIRECTION('ref_axis',(-1.77886033344905E-16,0.999603961657643,-0.0281410703127295));
#397=DIRECTION('center_axis',(1.,1.69925451490308E-16,-2.85272690751142E-16));
#398=DIRECTION('ref_axis',(-1.77886033344905E-16,0.999603961657643,-0.0281410703127295));
#399=DIRECTION('center_axis',(1.,1.69925451490308E-16,-2.85272690751142E-16));
#400=DIRECTION('ref_axis',(-2.45896572452969E-16,-0.0281410703127295,-0.999603961657643));
#401=DIRECTION('center_axis',(1.,1.69925451490308E-16,-2.85272690751142E-16));
#402=DIRECTION('ref_axis',(-1.77886033344905E-16,0.999603961657643,-0.0281410703127295));
#403=DIRECTION('center_axis',(1.,1.69925451490308E-16,-2.85272690751142E-16));
#404=DIRECTION('ref_axis',(-1.77886033344905E-16,0.999603961657643,-0.0281410703127295));
#405=DIRECTION('center_axis',(-1.,6.17331772027429E-34,0.));
#406=DIRECTION('ref_axis',(-3.05182072401822E-34,-1.,0.));
#407=DIRECTION('center_axis',(1.,-6.17331772027429E-34,0.));
#408=DIRECTION('ref_axis',(0.,-1.,0.));
#409=DIRECTION('center_axis',(-1.,6.17331772027429E-34,0.));
#410=DIRECTION('ref_axis',(-6.17331772027429E-34,-1.,0.));
#411=DIRECTION('center_axis',(1.,-6.17331772027429E-34,0.));
#412=DIRECTION('ref_axis',(0.,1.,0.));
#413=DIRECTION('center_axis',(1.,-6.17331772027429E-34,0.));
#414=DIRECTION('ref_axis',(0.,0.,-1.));
#415=CARTESIAN_POINT('',(0.,0.,0.));
#416=CARTESIAN_POINT('Origin',(-1.32497319425217,-3.0430941630155E-17,7.74097761961477E-22));
#417=CARTESIAN_POINT('',(-1.31454986090431,-0.398761397766408,0.0222550255248971));
#418=CARTESIAN_POINT('Origin',(-1.31454986090431,-3.04238977218688E-17,
-6.00222253304712E-18));
#419=CARTESIAN_POINT('',(-1.2938873557939,-0.462453151388818,0.0258096865591191));
#420=CARTESIAN_POINT('Origin',(-1.2938873557939,-3.04099343585085E-17,-1.79021536224984E-17));
#421=CARTESIAN_POINT('Origin',(-1.32497319425217,-3.0430941630155E-17,7.74097761961477E-22));
#422=CARTESIAN_POINT('',(-1.28936616990325,-0.419123062049191,0.0233914177656729));
#423=CARTESIAN_POINT('Origin',(-1.28936616990325,-3.0406879019329E-17,-2.05059908752318E-17));
#424=CARTESIAN_POINT('Origin',(-1.289751788677,-1.20948328465021E-18,1.03075221705536E-15));
#425=CARTESIAN_POINT('',(-1.3086314004085,0.480632240071362,-0.026824268424152));
#426=CARTESIAN_POINT('Origin',(-1.3086314004085,-1.22224179952048E-18,1.04162534581685E-15));
#427=CARTESIAN_POINT('Origin',(-1.30506659924962,-1.21983276859113E-18,
1.03957230878617E-15));
#428=CARTESIAN_POINT('',(-1.27087217694551,0.43407593277167,-0.0242259431772671));
#429=CARTESIAN_POINT('Origin',(-1.27087217694551,-1.19672476977994E-18,
1.01987908829388E-15));
#430=CARTESIAN_POINT('Origin',(-0.639422960536088,-7.70002317435181E-19,
6.56215431752427E-16));
#431=CARTESIAN_POINT('',(-1.27884592107218,0.504714569016806,-0.0281683123772074));
#432=CARTESIAN_POINT('Origin',(-1.27884592107218,-1.20211328806403E-18,
1.02447131973558E-15));
#433=CARTESIAN_POINT('',(-1.134,-0.504714569016806,0.0281683123772092));
#434=CARTESIAN_POINT('Origin',(-1.134,-1.10422892136307E-18,9.41051789038005E-16));
#435=CARTESIAN_POINT('Origin',(-1.44,0.18720866803294,-0.0104481870835331));
#436=CARTESIAN_POINT('',(-1.44,0.37441733606588,-0.0208963741670674));
#437=CARTESIAN_POINT('Origin',(-1.44,-1.31101842560854E-18,1.1172830298248E-15));
#438=CARTESIAN_POINT('Origin',(-1.29373866074034,-1.21217754379226E-18,
1.03304833277621E-15));
#439=CARTESIAN_POINT('Origin',(-1.289751788677,-1.20948328465021E-18,1.03075221705536E-15));
#440=CARTESIAN_POINT('Origin',(-1.30506659924962,-1.21983276859113E-18,
1.03957230878617E-15));
#441=CARTESIAN_POINT('',(-1.33926102155372,0.378781786471147,-0.0211399558069038));
#442=CARTESIAN_POINT('Origin',(-1.33926102155372,-1.24294076740233E-18,
1.05926552927846E-15));
#443=CARTESIAN_POINT('Origin',(-1.35814063328522,-1.2556992822726E-18,1.07013865803994E-15));
#444=CARTESIAN_POINT('',(-1.37702024501671,0.425338093770839,-0.0237382810537888));
#445=CARTESIAN_POINT('Origin',(-1.37702024501671,-1.26845779714287E-18,
1.08101178680143E-15));
#446=CARTESIAN_POINT('Origin',(-1.40851012250836,-1.28973811137571E-18,
1.09914740831312E-15));
#447=CARTESIAN_POINT('Origin',(0.846,0.531039604630623,-0.0149499436036381));
#448=CARTESIAN_POINT('',(0.846,1.02209505079494,-0.0287742443947666));
#449=CARTESIAN_POINT('Origin',(0.846,3.36452393950809E-16,-5.6483992768726E-16));
#450=CARTESIAN_POINT('',(0.846,-0.672,-8.22962649027021E-17));
#451=CARTESIAN_POINT('Origin',(0.846,-5.22262679135205E-34,0.));
#452=CARTESIAN_POINT('Origin',(-1.134,0.298631683545221,-0.00840714475592795));
#453=CARTESIAN_POINT('',(-1.134,0.597263367090441,-0.0168142895118559));
#454=CARTESIAN_POINT('Origin',(-1.134,-1.02375429730689E-31,-7.75490098670097E-32));
#455=CARTESIAN_POINT('Origin',(0.315296859440928,2.46272423183985E-16,-4.13444814789893E-16));
#456=CARTESIAN_POINT('',(0.806,1.06207920926125,-0.0298998872072755));
#457=CARTESIAN_POINT('Origin',(0.806,3.29655375891197E-16,-5.53429020057215E-16));
#458=CARTESIAN_POINT('',(0.346000000000001,-1.06207920926125,0.0298998872072748));
#459=CARTESIAN_POINT('Origin',(0.346,2.51489668205655E-16,-4.2220358231169E-16));
#460=CARTESIAN_POINT('Origin',(0.826,3.33053884921003E-16,-5.59134473872238E-16));
#461=CARTESIAN_POINT('Origin',(0.315296859440928,2.46272423183985E-16,-4.13444814789893E-16));
#462=CARTESIAN_POINT('',(-0.215406281118144,1.06207920926125,-0.0298998872072754));
#463=CARTESIAN_POINT('Origin',(-0.215406281118144,1.5609245241716E-16,-2.62049701892525E-16));
#464=CARTESIAN_POINT('Origin',(-1.11797853002999,2.72245551819261E-18,-4.57048784813404E-18));
#465=CARTESIAN_POINT('',(-1.10195706005998,0.652741386962441,-0.0183761189142124));
#466=CARTESIAN_POINT('Origin',(-1.10195706005998,5.44491103638532E-18,-9.140975696268E-18));
#467=CARTESIAN_POINT('Origin',(-0.812978530029987,5.45497182227364E-17,
-9.15786585272321E-17));
#468=CARTESIAN_POINT('',(-0.523999999999999,0.652741386962441,-0.0183761189142126));
#469=CARTESIAN_POINT('Origin',(-0.523999999999999,1.03654525409088E-16,
-1.74016341358196E-16));
#470=CARTESIAN_POINT('Origin',(-0.523999999999999,1.03654525409088E-16,
-1.74016341358196E-16));
#471=CARTESIAN_POINT('',(-0.415746824526945,0.715216634566043,-0.0201349358087582));
#472=CARTESIAN_POINT('Origin',(-0.415746824526944,1.22049495126606E-16,
-2.0489801600775E-16));
#473=CARTESIAN_POINT('Origin',(-0.315576552822544,1.39070973771883E-16,
-2.33473858950137E-16));
#474=CARTESIAN_POINT('Origin',(0.9075,-5.60228583114892E-34,0.));
#475=CARTESIAN_POINT('',(0.9,0.672,8.22962649027021E-17));
#476=CARTESIAN_POINT('Origin',(0.9,-5.55598594824686E-34,0.));
#477=CARTESIAN_POINT('',(0.915,0.657,-8.04592947039811E-17));
#478=CARTESIAN_POINT('Origin',(0.915,-5.64858571405097E-34,0.));
#479=CARTESIAN_POINT('Origin',(0.8,-4.93865417621943E-34,0.));
#480=CARTESIAN_POINT('Origin',(0.915,0.336,0.));
#481=UNCERTAINTY_MEASURE_WITH_UNIT(LENGTH_MEASURE(0.000393700787401575),
#485,'DISTANCE_ACCURACY_VALUE',
'Maximum model space distance between geometric entities at asserted c
onnectivities');
#482=UNCERTAINTY_MEASURE_WITH_UNIT(LENGTH_MEASURE(1.E-6),#486,
'DISTANCE_ACCURACY_VALUE',
'Maximum model space distance between geometric entities at asserted c
onnectivities');
#483=(
GEOMETRIC_REPRESENTATION_CONTEXT(3)
GLOBAL_UNCERTAINTY_ASSIGNED_CONTEXT((#481))
GLOBAL_UNIT_ASSIGNED_CONTEXT((#485,#491,#488))
REPRESENTATION_CONTEXT('','3D')
);
#484=(
GEOMETRIC_REPRESENTATION_CONTEXT(3)
GLOBAL_UNCERTAINTY_ASSIGNED_CONTEXT((#482))
GLOBAL_UNIT_ASSIGNED_CONTEXT((#486,#491,#488))
REPRESENTATION_CONTEXT('','3D')
);
#485=(
CONVERSION_BASED_UNIT('__CONSTANT UNIT inch',#487)
LENGTH_UNIT()
NAMED_UNIT(#490)
);
#486=(
LENGTH_UNIT()
NAMED_UNIT(*)
SI_UNIT(.MILLI.,.METRE.)
);
#487=LENGTH_MEASURE_WITH_UNIT(LENGTH_MEASURE(25.4),#486);
#488=(
NAMED_UNIT(*)
SI_UNIT($,.STERADIAN.)
SOLID_ANGLE_UNIT()
);
#489=DIMENSIONAL_EXPONENTS(0.,0.,0.,0.,0.,0.,0.);
#490=DIMENSIONAL_EXPONENTS(1.,0.,0.,0.,0.,0.,0.);
#491=(
CONVERSION_BASED_UNIT('degree',#493)
NAMED_UNIT(#489)
PLANE_ANGLE_UNIT()
);
#492=(
NAMED_UNIT(*)
PLANE_ANGLE_UNIT()
SI_UNIT($,.RADIAN.)
);
#493=PLANE_ANGLE_MEASURE_WITH_UNIT(PLANE_ANGLE_MEASURE(0.01745329252),#492);
#494=SHAPE_DEFINITION_REPRESENTATION(#495,#496);
#495=PRODUCT_DEFINITION_SHAPE('',$,#498);
#496=SHAPE_REPRESENTATION('',(#280),#483);
#497=PRODUCT_DEFINITION_CONTEXT('part definition',#502,'design');
#498=PRODUCT_DEFINITION('MITH-160P','MITH-160P',#499,#497);
#499=PRODUCT_DEFINITION_FORMATION('',$,#504);
#500=PRODUCT_RELATED_PRODUCT_CATEGORY('MITH-160P','MITH-160P',(#504));
#501=APPLICATION_PROTOCOL_DEFINITION('international standard',
'automotive_design',2009,#502);
#502=APPLICATION_CONTEXT(
'Core Data for Automotive Mechanical Design Process');
#503=PRODUCT_CONTEXT('part definition',#502,'mechanical');
#504=PRODUCT('MITH-160P','MITH-160P',$,(#503));
#505=PRESENTATION_STYLE_ASSIGNMENT((#509));
#506=PRESENTATION_STYLE_ASSIGNMENT((#510));
#507=PRESENTATION_STYLE_ASSIGNMENT((#511));
#508=PRESENTATION_STYLE_ASSIGNMENT((#512));
#509=SURFACE_STYLE_USAGE(.BOTH.,#513);
#510=SURFACE_STYLE_USAGE(.BOTH.,#514);
#511=SURFACE_STYLE_USAGE(.BOTH.,#515);
#512=SURFACE_STYLE_USAGE(.BOTH.,#516);
#513=SURFACE_SIDE_STYLE('',(#517));
#514=SURFACE_SIDE_STYLE('',(#518));
#515=SURFACE_SIDE_STYLE('',(#519));
#516=SURFACE_SIDE_STYLE('',(#520));
#517=SURFACE_STYLE_FILL_AREA(#521);
#518=SURFACE_STYLE_FILL_AREA(#522);
#519=SURFACE_STYLE_FILL_AREA(#523);
#520=SURFACE_STYLE_FILL_AREA(#524);
#521=FILL_AREA_STYLE('',(#525));
#522=FILL_AREA_STYLE('',(#526));
#523=FILL_AREA_STYLE('',(#527));
#524=FILL_AREA_STYLE('',(#528));
#525=FILL_AREA_STYLE_COLOUR('',#529);
#526=FILL_AREA_STYLE_COLOUR('',#530);
#527=FILL_AREA_STYLE_COLOUR('',#531);
#528=FILL_AREA_STYLE_COLOUR('',#532);
#529=COLOUR_RGB('',0.63921568627451,0.63921568627451,0.686274509803922);
#530=COLOUR_RGB('',0.309803921568627,0.309803921568627,0.309803921568627);
#531=COLOUR_RGB('',0.956862745098039,0.956862745098039,0.956862745098039);
#532=COLOUR_RGB('',0.580392156862745,0.580392156862745,0.592156862745098);
ENDSEC;
END-ISO-10303-21;
